ISO-10303-21;
HEADER;
FILE_DESCRIPTION ((), '1');
FILE_NAME ('\\\\fileserver\\Daten\\Applikationen\\Optikdesign\\SPA-Design\\aktuelle SPA-Designs\\Linsenkataloge - 2016-Juni\\Zemax\\ALL\\ALL50-100.STP', '2016-05-24T14:21:03', ('Unknown'), ('Unknown'), 'HarmonyWare STEP v2.0.1', 'HarmonyWare Translators', '');
FILE_SCHEMA (('CONFIG_CONTROL_DESIGN'));
ENDSEC;

DATA;
#10 = CARTESIAN_POINT ('', (25., 0., -97.1115344259076));
#20 = VERTEX_POINT ('', #10);
#30 = CARTESIAN_POINT ('', (1.53080849893419E-15, 25., -97.1115344259076));
#40 = VERTEX_POINT ('', #30);
#50 = CARTESIAN_POINT ('', (25., 0., -97.1115344259076));
#60 = CARTESIAN_POINT ('', (25., 25., -97.1115344259076));
#70 = CARTESIAN_POINT ('', (1.53080849893419E-15, 25., -97.1115344259076));
#80 = (
   BOUNDED_CURVE ()
   B_SPLINE_CURVE (2, (#50, #60, #70), .UNSPECIFIED., .F., .U.)
   B_SPLINE_CURVE_WITH_KNOTS ((3, 3), (0., 1.5707963267949), .UNSPECIFIED.)
   CURVE ()
   GEOMETRIC_REPRESENTATION_ITEM ()
   RATIONAL_B_SPLINE_CURVE ((1., 0.707106781186548, 1.))
   REPRESENTATION_ITEM ('')
);
#90 = EDGE_CURVE ('', #20, #40, #80, .T.);
#100 = ORIENTED_EDGE ('', *, *, #90, .T.);
#110 = CARTESIAN_POINT ('', (-25., 3.06161699786838E-15, -97.1115344259076));
#120 = VERTEX_POINT ('', #110);
#130 = CARTESIAN_POINT ('', (1.53080849893419E-15, 25., -97.1115344259076));
#140 = CARTESIAN_POINT ('', (-25., 25., -97.1115344259076));
#150 = CARTESIAN_POINT ('', (-25., 3.06161699786838E-15, -97.1115344259076));
#160 = (
   BOUNDED_CURVE ()
   B_SPLINE_CURVE (2, (#130, #140, #150), .UNSPECIFIED., .F., .U.)
   B_SPLINE_CURVE_WITH_KNOTS ((3, 3), (1.5707963267949, 3.14159265358979), .UNSPECIFIED.)
   CURVE ()
   GEOMETRIC_REPRESENTATION_ITEM ()
   RATIONAL_B_SPLINE_CURVE ((1., 0.707106781186548, 1.))
   REPRESENTATION_ITEM ('')
);
#170 = EDGE_CURVE ('', #40, #120, #160, .T.);
#180 = ORIENTED_EDGE ('', *, *, #170, .T.);
#190 = CARTESIAN_POINT ('', (-25., 3.06161699786838E-15, -93.38592387902));
#200 = VERTEX_POINT ('', #190);
#210 = CARTESIAN_POINT ('', (-25., 3.06161699786838E-15, -97.1115344259076));
#220 = CARTESIAN_POINT ('', (-25., 3.06161699786838E-15, -93.38592387902));
#230 = B_SPLINE_CURVE_WITH_KNOTS ('', 1, (#210, #220), .UNSPECIFIED., .F., .U., (2, 2), (0., 1.), .UNSPECIFIED.);
#240 = EDGE_CURVE ('', #120, #200, #230, .T.);
#250 = ORIENTED_EDGE ('', *, *, #240, .T.);
#260 = CARTESIAN_POINT ('', (25., 0., -93.38592387902));
#270 = VERTEX_POINT ('', #260);
#280 = CARTESIAN_POINT ('', (25., 0., -93.38592387902));
#290 = CARTESIAN_POINT ('', (25., 25., -93.38592387902));
#300 = CARTESIAN_POINT ('', (1.53080849893419E-15, 25., -93.38592387902));
#310 = CARTESIAN_POINT ('', (-25., 25., -93.38592387902));
#320 = CARTESIAN_POINT ('', (-25., 3.06161699786838E-15, -93.38592387902));
#330 = (
   BOUNDED_CURVE ()
   B_SPLINE_CURVE (2, (#280, #290, #300, #310, #320), .UNSPECIFIED., .F., .U.)
   B_SPLINE_CURVE_WITH_KNOTS ((3, 2, 3), (0., 1.5707963267949, 3.14159265358979), .UNSPECIFIED.)
   CURVE ()
   GEOMETRIC_REPRESENTATION_ITEM ()
   RATIONAL_B_SPLINE_CURVE ((1., 0.707106781186548, 1., 0.707106781186548, 1.))
   REPRESENTATION_ITEM ('')
);
#340 = EDGE_CURVE ('', #270, #200, #330, .T.);
#350 = ORIENTED_EDGE ('', *, *, #340, .F.);
#360 = CARTESIAN_POINT ('', (25., 0., -97.1115344259076));
#370 = CARTESIAN_POINT ('', (25., 0., -93.38592387902));
#380 = B_SPLINE_CURVE_WITH_KNOTS ('', 1, (#360, #370), .UNSPECIFIED., .F., .U., (2, 2), (0., 1.), .UNSPECIFIED.);
#390 = EDGE_CURVE ('', #20, #270, #380, .T.);
#400 = ORIENTED_EDGE ('', *, *, #390, .F.);
#410 = EDGE_LOOP ('', (#100, #180, #250, #350, #400));
#420 = FACE_OUTER_BOUND ('', #410, .T.);
#430 = CARTESIAN_POINT ('', (3.5527136788005E-15, -5.32907051820075E-15, -97.1115344259076));
#440 = DIRECTION ('', (0., 0., 1.));
#450 = DIRECTION ('', (1., 2.1316282072803E-16, 0.));
#460 = AXIS2_PLACEMENT_3D ('', #430, #440, #450);
#470 = CYLINDRICAL_SURFACE ('', #460, 25.);
#480 = ADVANCED_FACE ('', (#420), #470, .T.);
#490 = CARTESIAN_POINT ('', (-25., 3.06161699786838E-15, -97.1115344259076));
#500 = CARTESIAN_POINT ('', (-25., -25., -97.1115344259076));
#510 = CARTESIAN_POINT ('', (-4.59242549680257E-15, -25., -97.1115344259076));
#520 = CARTESIAN_POINT ('', (25., -25., -97.1115344259076));
#530 = CARTESIAN_POINT ('', (25., -6.12323399573677E-15, -97.1115344259076));
#540 = (
   BOUNDED_CURVE ()
   B_SPLINE_CURVE (2, (#490, #500, #510, #520, #530), .UNSPECIFIED., .F., .U.)
   B_SPLINE_CURVE_WITH_KNOTS ((3, 2, 3), (3.14159265358979, 4.71238898038469, 6.28318530717959), .UNSPECIFIED.)
   CURVE ()
   GEOMETRIC_REPRESENTATION_ITEM ()
   RATIONAL_B_SPLINE_CURVE ((1., 0.707106781186548, 1., 0.707106781186548, 1.))
   REPRESENTATION_ITEM ('')
);
#550 = EDGE_CURVE ('', #120, #20, #540, .T.);
#560 = ORIENTED_EDGE ('', *, *, #550, .T.);
#570 = ORIENTED_EDGE ('', *, *, #390, .T.);
#580 = CARTESIAN_POINT ('', (-25., 3.06161699786838E-15, -93.38592387902));
#590 = CARTESIAN_POINT ('', (-25., -25., -93.38592387902));
#600 = CARTESIAN_POINT ('', (-4.59242549680257E-15, -25., -93.38592387902));
#610 = CARTESIAN_POINT ('', (25., -25., -93.38592387902));
#620 = CARTESIAN_POINT ('', (25., -6.12323399573677E-15, -93.38592387902));
#630 = (
   BOUNDED_CURVE ()
   B_SPLINE_CURVE (2, (#580, #590, #600, #610, #620), .UNSPECIFIED., .F., .U.)
   B_SPLINE_CURVE_WITH_KNOTS ((3, 2, 3), (3.14159265358979, 4.71238898038469, 6.28318530717959), .UNSPECIFIED.)
   CURVE ()
   GEOMETRIC_REPRESENTATION_ITEM ()
   RATIONAL_B_SPLINE_CURVE ((1., 0.707106781186548, 1., 0.707106781186548, 1.))
   REPRESENTATION_ITEM ('')
);
#640 = EDGE_CURVE ('', #200, #270, #630, .T.);
#650 = ORIENTED_EDGE ('', *, *, #640, .F.);
#660 = ORIENTED_EDGE ('', *, *, #240, .F.);
#670 = EDGE_LOOP ('', (#560, #570, #650, #660));
#680 = FACE_OUTER_BOUND ('', #670, .T.);
#690 = CARTESIAN_POINT ('', (-1.77635683940025E-15, 1.77635683940025E-15, -97.1115344259076));
#700 = DIRECTION ('', (0., 0., 1.));
#710 = DIRECTION ('', (-1., 5.14104063387253E-17, 0.));
#720 = AXIS2_PLACEMENT_3D ('', #690, #700, #710);
#730 = CYLINDRICAL_SURFACE ('', #720, 25.);
#740 = ADVANCED_FACE ('', (#680), #730, .T.);
#750 = CARTESIAN_POINT ('', (0., 0., -103.38592387902));
#760 = VERTEX_POINT ('', #750);
#770 = CARTESIAN_POINT ('', (0., 0., -103.38592387902));
#780 = CARTESIAN_POINT ('', (0., 1.60828383246198, -103.38592387902));
#790 = CARTESIAN_POINT ('', (0., 4.26650732154068, -103.260156172382));
#800 = CARTESIAN_POINT ('', (0., 7.69333233577841, -102.830488889399));
#810 = CARTESIAN_POINT ('', (-7.88860905221012E-31, 11.0948463034106, -102.219442275557));
#820 = CARTESIAN_POINT ('', (0., 14.765107148596, -101.298033983041));
#830 = CARTESIAN_POINT ('', (0., 18.3936896510594, -100.065308026479));
#840 = CARTESIAN_POINT ('', (0., 21.7403800496731, -98.7070507814952));
#850 = CARTESIAN_POINT ('', (0., 23.7621385227209, -97.7494832904848));
#860 = CARTESIAN_POINT ('', (0., 25., -97.1115344259076));
#870 = B_SPLINE_CURVE_WITH_KNOTS ('', 3, (#770, #780, #790, #800, #810, #820, #830, #840, #850, #860), .UNSPECIFIED., .F., .U., (4, 1, 1, 1, 1, 1, 1, 4), (0., 0.185407612103246, 0.306450956832586, 0.39796359940594, 0.58371842562619, 0.742260304572013, 0.839459319221756, 1.), .UNSPECIFIED.);
#880 = EDGE_CURVE ('', #760, #40, #870, .T.);
#890 = ORIENTED_EDGE ('', *, *, #880, .T.);
#900 = ORIENTED_EDGE ('', *, *, #90, .F.);
#910 = ORIENTED_EDGE ('', *, *, #550, .F.);
#920 = ORIENTED_EDGE ('', *, *, #170, .F.);
#930 = ORIENTED_EDGE ('', *, *, #880, .F.);
#940 = EDGE_LOOP ('', (#890, #900, #910, #920, #930));
#950 = FACE_OUTER_BOUND ('', #940, .T.);
#960 = CARTESIAN_POINT ('', (0., 25., -97.1115344259076));
#970 = CARTESIAN_POINT ('', (-25., 25., -97.1115344259076));
#980 = CARTESIAN_POINT ('', (-25., 1.01905480910104E-14, -97.1115344259076));
#990 = CARTESIAN_POINT ('', (-25., -25., -97.1115344259076));
#1000 = CARTESIAN_POINT ('', (-1.37197580342699E-14, -25., -97.1115344259076));
#1010 = CARTESIAN_POINT ('', (25., -25., -97.1115344259076));
#1020 = CARTESIAN_POINT ('', (25., -6.59082694112786E-15, -97.1115344259076));
#1030 = CARTESIAN_POINT ('', (25., 25., -97.1115344259076));
#1040 = CARTESIAN_POINT ('', (0., 25., -97.1115344259076));
#1050 = CARTESIAN_POINT ('', (0., 23.7621385227209, -97.7494832904848));
#1060 = CARTESIAN_POINT ('', (-23.7621385227209, 23.7621385227209, -97.7494832904848));
#1070 = CARTESIAN_POINT ('', (-23.7621385227209, 1.01147509362135E-14, -97.7494832904848));
#1080 = CARTESIAN_POINT ('', (-23.7621385227209, -23.7621385227209, -97.7494832904848));
#1090 = CARTESIAN_POINT ('', (-1.35681637246761E-14, -23.7621385227209, -97.7494832904848));
#1100 = CARTESIAN_POINT ('', (23.7621385227209, -23.7621385227209, -97.7494832904848));
#1110 = CARTESIAN_POINT ('', (23.7621385227209, -6.3634354767372E-15, -97.7494832904848));
#1120 = CARTESIAN_POINT ('', (23.7621385227209, 23.7621385227209, -97.7494832904848));
#1130 = CARTESIAN_POINT ('', (0., 23.7621385227209, -97.7494832904848));
#1140 = CARTESIAN_POINT ('', (0., 21.7403800496731, -98.7070507814952));
#1150 = CARTESIAN_POINT ('', (-21.7403800496731, 21.7403800496731, -98.7070507814952));
#1160 = CARTESIAN_POINT ('', (-21.7403800496731, 9.99095393408018E-15, -98.7070507814952));
#1170 = CARTESIAN_POINT ('', (-21.7403800496731, -21.740380049673, -98.7070507814952));
#1180 = CARTESIAN_POINT ('', (-1.33205697204094E-14, -21.7403800496731, -98.7070507814952));
#1190 = CARTESIAN_POINT ('', (21.740380049673, -21.7403800496731, -98.7070507814952));
#1200 = CARTESIAN_POINT ('', (21.740380049673, -5.99204447033714E-15, -98.7070507814952));
#1210 = CARTESIAN_POINT ('', (21.7403800496731, 21.740380049673, -98.7070507814952));
#1220 = CARTESIAN_POINT ('', (0., 21.7403800496731, -98.7070507814952));
#1230 = CARTESIAN_POINT ('', (0., 18.3936896510594, -100.065308026479));
#1240 = CARTESIAN_POINT ('', (-18.3936896510594, 18.3936896510595, -100.065308026479));
#1250 = CARTESIAN_POINT ('', (-18.3936896510594, 9.78602824986021E-15, -100.065308026479));
#1260 = CARTESIAN_POINT ('', (-18.3936896510595, -18.3936896510594, -100.065308026479));
#1270 = CARTESIAN_POINT ('', (-1.29107183519695E-14, -18.3936896510594, -100.065308026479));
#1280 = CARTESIAN_POINT ('', (18.3936896510594, -18.3936896510594, -100.065308026479));
#1290 = CARTESIAN_POINT ('', (18.3936896510594, -5.37726741767724E-15, -100.065308026479));
#1300 = CARTESIAN_POINT ('', (18.3936896510594, 18.3936896510594, -100.065308026479));
#1310 = CARTESIAN_POINT ('', (0., 18.3936896510594, -100.065308026479));
#1320 = CARTESIAN_POINT ('', (0., 14.765107148596, -101.298033983041));
#1330 = CARTESIAN_POINT ('', (-14.765107148596, 14.765107148596, -101.298033983041));
#1340 = CARTESIAN_POINT ('', (-14.765107148596, 9.56384165250601E-15, -101.298033983041));
#1350 = CARTESIAN_POINT ('', (-14.765107148596, -14.765107148596, -101.298033983041));
#1360 = CARTESIAN_POINT ('', (-1.24663451572611E-14, -14.765107148596, -101.298033983041));
#1370 = CARTESIAN_POINT ('', (14.765107148596, -14.765107148596, -101.298033983041));
#1380 = CARTESIAN_POINT ('', (14.765107148596, -4.71070762561465E-15, -101.298033983041));
#1390 = CARTESIAN_POINT ('', (14.765107148596, 14.765107148596, -101.298033983041));
#1400 = CARTESIAN_POINT ('', (0., 14.765107148596, -101.298033983041));
#1410 = CARTESIAN_POINT ('', (-7.88860905221012E-31, 11.0948463034106, -102.219442275557));
#1420 = CARTESIAN_POINT ('', (-11.0948463034106, 11.0948463034106, -102.219442275557));
#1430 = CARTESIAN_POINT ('', (-11.0948463034106, 9.3391029927014E-15, -102.219442275557));
#1440 = CARTESIAN_POINT ('', (-11.0948463034106, -11.0948463034106, -102.219442275557));
#1450 = CARTESIAN_POINT ('', (-1.20168678376519E-14, -11.0948463034106, -102.219442275557));
#1460 = CARTESIAN_POINT ('', (11.0948463034106, -11.0948463034106, -102.219442275557));
#1470 = CARTESIAN_POINT ('', (11.0948463034106, -4.03649164620083E-15, -102.219442275557));
#1480 = CARTESIAN_POINT ('', (11.0948463034106, 11.0948463034106, -102.219442275557));
#1490 = CARTESIAN_POINT ('', (-7.88860905221012E-31, 11.0948463034106, -102.219442275557));
#1500 = CARTESIAN_POINT ('', (0., 7.69333233577841, -102.830488889399));
#1510 = CARTESIAN_POINT ('', (-7.69333233577841, 7.69333233577842, -102.830488889399));
#1520 = CARTESIAN_POINT ('', (-7.69333233577841, 9.13082033306561E-15, -102.830488889399));
#1530 = CARTESIAN_POINT ('', (-7.69333233577842, -7.6933323357784, -102.830488889399));
#1540 = CARTESIAN_POINT ('', (-1.16003025183803E-14, -7.69333233577841, -102.830488889399));
#1550 = CARTESIAN_POINT ('', (7.6933323357784, -7.69333233577841, -102.830488889399));
#1560 = CARTESIAN_POINT ('', (7.6933323357784, -3.41164366729346E-15, -102.830488889399));
#1570 = CARTESIAN_POINT ('', (7.69333233577841, 7.6933323357784, -102.830488889399));
#1580 = CARTESIAN_POINT ('', (0., 7.69333233577841, -102.830488889399));
#1590 = CARTESIAN_POINT ('', (0., 4.26650732154068, -103.260156172382));
#1600 = CARTESIAN_POINT ('', (-4.26650732154068, 4.26650732154069, -103.260156172382));
#1610 = CARTESIAN_POINT ('', (-4.26650732154068, 8.9209878188194E-15, -103.260156172382));
#1620 = CARTESIAN_POINT ('', (-4.26650732154069, -4.26650732154067, -103.260156172382));
#1630 = CARTESIAN_POINT ('', (-1.11806374898879E-14, -4.26650732154068, -103.260156172382));
#1640 = CARTESIAN_POINT ('', (4.26650732154067, -4.26650732154068, -103.260156172382));
#1650 = CARTESIAN_POINT ('', (4.26650732154067, -2.78214612455481E-15, -103.260156172382));
#1660 = CARTESIAN_POINT ('', (4.26650732154068, 4.26650732154068, -103.260156172382));
#1670 = CARTESIAN_POINT ('', (0., 4.26650732154068, -103.260156172382));
#1680 = CARTESIAN_POINT ('', (0., 1.60828383246198, -103.38592387902));
#1690 = CARTESIAN_POINT ('', (-1.60828383246198, 1.60828383246198, -103.38592387902));
#1700 = CARTESIAN_POINT ('', (-1.60828383246198, 8.75821857445347E-15, -103.38592387902));
#1710 = CARTESIAN_POINT ('', (-1.60828383246199, -1.60828383246197, -103.38592387902));
#1720 = CARTESIAN_POINT ('', (-1.0855099001156E-14, -1.60828383246197, -103.38592387902));
#1730 = CARTESIAN_POINT ('', (1.60828383246196, -1.60828383246198, -103.38592387902));
#1740 = CARTESIAN_POINT ('', (1.60828383246197, -2.29383839145703E-15, -103.38592387902));
#1750 = CARTESIAN_POINT ('', (1.60828383246198, 1.60828383246197, -103.38592387902));
#1760 = CARTESIAN_POINT ('', (0., 1.60828383246198, -103.38592387902));
#1770 = CARTESIAN_POINT ('', (0., 0., -103.38592387902));
#1780 = CARTESIAN_POINT ('', (0., 0., -103.38592387902));
#1790 = CARTESIAN_POINT ('', (0., 0., -103.38592387902));
#1800 = CARTESIAN_POINT ('', (0., 0., -103.38592387902));
#1810 = CARTESIAN_POINT ('', (0., 0., -103.38592387902));
#1820 = CARTESIAN_POINT ('', (0., 0., -103.38592387902));
#1830 = CARTESIAN_POINT ('', (0., 0., -103.38592387902));
#1840 = CARTESIAN_POINT ('', (0., 0., -103.38592387902));
#1850 = CARTESIAN_POINT ('', (0., 0., -103.38592387902));
#1860 = (
   BOUNDED_SURFACE ()
   B_SPLINE_SURFACE (3, 2, ((#960, #970, #980, #990, #1000, #1010, #1020, #1030, #1040), (#1050, #1060, #1070, #1080, #1090, #1100, #1110, #1120, #1130), (#1140, #1150, #1160, #1170, #1180, #1190, #1200, #1210, #1220), (#1230, #1240, #1250, #1260, #1270, #1280, #1290, #1300, #1310), (#1320, #1330, #1340, #1350, #1360, #1370, #1380, #1390, #1400), (#1410, #1420, #1430, #1440, #1450, #1460, #1470, #1480, #1490), (#1500, #1510, #1520, #1530, #1540, #1550, #1560, #1570, #1580), (#1590, #1600, #1610, #1620, #1630, #1640, #1650, #1660, #1670), (#1680, #1690, #1700, #1710, #1720, #1730, #1740, #1750, #1760), (#1770, #1780, #1790, #1800, #1810, #1820, #1830, #1840, #1850)), .UNSPECIFIED., .F., .T., .U.)
   B_SPLINE_SURFACE_WITH_KNOTS ((4, 1, 1, 1, 1, 1, 1, 4), (3, 2, 2, 2, 3), (0., 0.160540680778244, 0.257739695427987, 0.41628157437381, 0.60203640059406, 0.693549043167414, 0.814592387896754, 1.), (0., 90., 180., 270., 360.), .UNSPECIFIED.)
   SURFACE ()
   GEOMETRIC_REPRESENTATION_ITEM ()
   RATIONAL_B_SPLINE_SURFACE (((1., 0.707106781186548, 1., 0.707106781186548, 1., 0.707106781186548, 1., 0.707106781186548, 1.), (1., 0.707106781186548, 1., 0.707106781186548, 1., 0.707106781186548, 1., 0.707106781186548, 1.), (1., 0.707106781186548, 1., 0.707106781186548, 1., 0.707106781186548, 1., 0.707106781186548, 1.), (1., 0.707106781186548, 1., 0.707106781186548, 1., 0.707106781186548, 1., 0.707106781186548, 1.), (1., 0.707106781186548, 1., 0.707106781186548, 1., 0.707106781186548, 1., 0.707106781186548, 1.), (1., 0.707106781186548, 1., 0.707106781186548, 1., 0.707106781186548, 1., 0.707106781186548, 1.), (1., 0.707106781186548, 1., 0.707106781186548, 1., 0.707106781186548, 1., 0.707106781186548, 1.), (1., 0.707106781186548, 1., 0.707106781186548, 1., 0.707106781186548, 1., 0.707106781186548, 1.), (1., 0.707106781186548, 1., 0.707106781186548, 1., 0.707106781186548, 1., 0.707106781186548, 1.), (1., 0.707106781186548, 1., 0.707106781186548, 1., 0.707106781186548, 1., 0.707106781186548, 1.)))
   REPRESENTATION_ITEM ('')
);
#1870 = ADVANCED_FACE ('', (#950), #1860, .T.);
#1880 = ORIENTED_EDGE ('', *, *, #340, .T.);
#1890 = ORIENTED_EDGE ('', *, *, #640, .T.);
#1900 = EDGE_LOOP ('', (#1880, #1890));
#1910 = FACE_OUTER_BOUND ('', #1900, .T.);
#1920 = CARTESIAN_POINT ('', (0., 51.204, -93.38592387902));
#1930 = DIRECTION ('', (0., 0., 1.));
#1940 = DIRECTION ('', (-0.707106781186548, -0.707106781186548, 0.));
#1950 = AXIS2_PLACEMENT_3D ('', #1920, #1930, #1940);
#1960 = PLANE ('', #1950);
#1970 = ADVANCED_FACE ('', (#1910), #1960, .T.);
#1980 = CLOSED_SHELL ('', (#480, #740, #1870, #1970));
#1990 = MANIFOLD_SOLID_BREP ('', #1980);
#2000 = (
   LENGTH_UNIT ()
   NAMED_UNIT (*)
   SI_UNIT (.MILLI., .METRE.)
);
#2010 = (
   NAMED_UNIT (*)
   SI_UNIT ($, .STERADIAN.)
   SOLID_ANGLE_UNIT ()
);
#2020 = (
   NAMED_UNIT (*)
   SI_UNIT ($, .RADIAN.)
   PLANE_ANGLE_UNIT ()
);
#2030 = UNCERTAINTY_MEASURE_WITH_UNIT (LENGTH_MEASURE(0.0001), #2000, 'DISTANCE_ACCURACY_VALUE', '');
#2040 = (
   GEOMETRIC_REPRESENTATION_CONTEXT (3)
   GLOBAL_UNCERTAINTY_ASSIGNED_CONTEXT ((#2030))
   GLOBAL_UNIT_ASSIGNED_CONTEXT ((#2000, #2010, #2020))
   REPRESENTATION_CONTEXT ('', '3D')
);
#2050 = ADVANCED_BREP_SHAPE_REPRESENTATION ('', (#1990), #2040);
#2060 = APPLICATION_CONTEXT ('configuration controlled 3D designs of mechanical parts and assemblies');
#2070 = APPLICATION_PROTOCOL_DEFINITION ('International Standard', 'config_control_design', 1997, #2060);
#2080 = MECHANICAL_CONTEXT ('', #2060, 'mechanical');
#2090 = PRODUCT ('NONE', '', '', (#2080));
#2100 = PERSON_AND_ORGANIZATION_ROLE ('design_owner');
#2110 = PERSON ('', '', $, $, $, $);
#2120 = ORGANIZATION ($, '', '');
#2130 = PERSON_AND_ORGANIZATION (#2110, #2120);
#2140 = CC_DESIGN_PERSON_AND_ORGANIZATION_ASSIGNMENT (#2130, #2100, (#2090));
#2150 = PRODUCT_RELATED_PRODUCT_CATEGORY ('detail', $, (#2090));
#2160 = PRODUCT_DEFINITION_FORMATION_WITH_SPECIFIED_SOURCE ('', '', #2090, .NOT_KNOWN.);
#2170 = APPROVAL_STATUS ('approved');
#2180 = APPROVAL (#2170, '');
#2190 = CALENDAR_DATE (2016, 24, 5);
#2200 = COORDINATED_UNIVERSAL_TIME_OFFSET (0, $, .AHEAD.);
#2210 = LOCAL_TIME (14, 21, 3., #2200);
#2220 = DATE_AND_TIME (#2190, #2210);
#2230 = APPROVAL_DATE_TIME (#2220, #2180);
#2240 = APPROVAL_ROLE ('');
#2250 = PERSON ('', '', $, $, $, $);
#2260 = ORGANIZATION ($, '', '');
#2270 = PERSON_AND_ORGANIZATION (#2250, #2260);
#2280 = APPROVAL_PERSON_ORGANIZATION (#2270, #2180, #2240);
#2290 = CC_DESIGN_APPROVAL (#2180, (#2160));
#2300 = PERSON_AND_ORGANIZATION_ROLE ('creator');
#2310 = PERSON ('', '', $, $, $, $);
#2320 = ORGANIZATION ($, '', '');
#2330 = PERSON_AND_ORGANIZATION (#2310, #2320);
#2340 = CC_DESIGN_PERSON_AND_ORGANIZATION_ASSIGNMENT (#2330, #2300, (#2160));
#2350 = PERSON_AND_ORGANIZATION_ROLE ('part_supplier');
#2360 = PERSON ('', '', $, $, $, $);
#2370 = ORGANIZATION ($, '', '');
#2380 = PERSON_AND_ORGANIZATION (#2360, #2370);
#2390 = CC_DESIGN_PERSON_AND_ORGANIZATION_ASSIGNMENT (#2380, #2350, (#2160));
#2400 = SECURITY_CLASSIFICATION_LEVEL ('unclassified');
#2410 = SECURITY_CLASSIFICATION ('', '', #2400);
#2420 = APPROVAL_STATUS ('approved');
#2430 = APPROVAL (#2420, '');
#2440 = CALENDAR_DATE (2016, 24, 5);
#2450 = COORDINATED_UNIVERSAL_TIME_OFFSET (0, $, .AHEAD.);
#2460 = LOCAL_TIME (14, 21, 3., #2450);
#2470 = DATE_AND_TIME (#2440, #2460);
#2480 = APPROVAL_DATE_TIME (#2470, #2430);
#2490 = APPROVAL_ROLE ('');
#2500 = PERSON ('', '', $, $, $, $);
#2510 = ORGANIZATION ($, '', '');
#2520 = PERSON_AND_ORGANIZATION (#2500, #2510);
#2530 = APPROVAL_PERSON_ORGANIZATION (#2520, #2430, #2490);
#2540 = CC_DESIGN_APPROVAL (#2430, (#2410));
#2550 = DATE_TIME_ROLE ('classification_date');
#2560 = CALENDAR_DATE (2016, 24, 5);
#2570 = COORDINATED_UNIVERSAL_TIME_OFFSET (0, $, .AHEAD.);
#2580 = LOCAL_TIME (14, 21, 3., #2570);
#2590 = DATE_AND_TIME (#2560, #2580);
#2600 = CC_DESIGN_DATE_AND_TIME_ASSIGNMENT (#2590, #2550, (#2410));
#2610 = PERSON_AND_ORGANIZATION_ROLE ('classification_officer');
#2620 = PERSON ('', '', $, $, $, $);
#2630 = ORGANIZATION ($, '', '');
#2640 = PERSON_AND_ORGANIZATION (#2620, #2630);
#2650 = CC_DESIGN_PERSON_AND_ORGANIZATION_ASSIGNMENT (#2640, #2610, (#2410));
#2660 = CC_DESIGN_SECURITY_CLASSIFICATION (#2410, (#2160));
#2670 = DESIGN_CONTEXT ('', #2060, 'design');
#2680 = PRODUCT_DEFINITION ('', '', #2160, #2670);
#2690 = APPROVAL_STATUS ('approved');
#2700 = APPROVAL (#2690, '');
#2710 = CALENDAR_DATE (2016, 24, 5);
#2720 = COORDINATED_UNIVERSAL_TIME_OFFSET (0, $, .AHEAD.);
#2730 = LOCAL_TIME (14, 21, 3., #2720);
#2740 = DATE_AND_TIME (#2710, #2730);
#2750 = APPROVAL_DATE_TIME (#2740, #2700);
#2760 = APPROVAL_ROLE ('');
#2770 = PERSON ('', '', $, $, $, $);
#2780 = ORGANIZATION ($, '', '');
#2790 = PERSON_AND_ORGANIZATION (#2770, #2780);
#2800 = APPROVAL_PERSON_ORGANIZATION (#2790, #2700, #2760);
#2810 = CC_DESIGN_APPROVAL (#2700, (#2680));
#2820 = DATE_TIME_ROLE ('creation_date');
#2830 = CALENDAR_DATE (2016, 24, 5);
#2840 = COORDINATED_UNIVERSAL_TIME_OFFSET (0, $, .AHEAD.);
#2850 = LOCAL_TIME (14, 21, 3., #2840);
#2860 = DATE_AND_TIME (#2830, #2850);
#2870 = CC_DESIGN_DATE_AND_TIME_ASSIGNMENT (#2860, #2820, (#2680));
#2880 = PERSON_AND_ORGANIZATION_ROLE ('creator');
#2890 = PERSON ('', '', $, $, $, $);
#2900 = ORGANIZATION ($, '', '');
#2910 = PERSON_AND_ORGANIZATION (#2890, #2900);
#2920 = CC_DESIGN_PERSON_AND_ORGANIZATION_ASSIGNMENT (#2910, #2880, (#2680));
#2930 = PRODUCT_DEFINITION_SHAPE ('', '', #2680);
#2940 = SHAPE_DEFINITION_REPRESENTATION (#2930, #2050);
#2950 = PRESENTATION_LAYER_ASSIGNMENT ('Level 0', 'Level 0', (#1990));
ENDSEC;
END-ISO-10303-21;
