ISO-10303-21;
HEADER;
FILE_DESCRIPTION ((), '1');
FILE_NAME ('\\\\fileserver\\Daten\\Applikationen\\Optikdesign\\SPA-Design\\aktuelle SPA-Designs\\Linsenkataloge - 2016-Juni\\Zemax\\AHL\\AHL45-32.STP', '2016-05-24T14:18:48', ('Unknown'), ('Unknown'), 'HarmonyWare STEP v2.0.1', 'HarmonyWare Translators', '');
FILE_SCHEMA (('CONFIG_CONTROL_DESIGN'));
ENDSEC;

DATA;
#10 = CARTESIAN_POINT ('', (22.5, 0., -27.1974634626601));
#20 = VERTEX_POINT ('', #10);
#30 = CARTESIAN_POINT ('', (1.37772764904077E-15, 22.5, -27.1974634626601));
#40 = VERTEX_POINT ('', #30);
#50 = CARTESIAN_POINT ('', (22.5, 0., -27.1974634626601));
#60 = CARTESIAN_POINT ('', (22.5, 22.5, -27.1974634626601));
#70 = CARTESIAN_POINT ('', (1.37772764904077E-15, 22.5, -27.1974634626601));
#80 = (
   BOUNDED_CURVE ()
   B_SPLINE_CURVE (2, (#50, #60, #70), .UNSPECIFIED., .F., .U.)
   B_SPLINE_CURVE_WITH_KNOTS ((3, 3), (0., 1.5707963267949), .UNSPECIFIED.)
   CURVE ()
   GEOMETRIC_REPRESENTATION_ITEM ()
   RATIONAL_B_SPLINE_CURVE ((1., 0.707106781186548, 1.))
   REPRESENTATION_ITEM ('')
);
#90 = EDGE_CURVE ('', #20, #40, #80, .T.);
#100 = ORIENTED_EDGE ('', *, *, #90, .T.);
#110 = CARTESIAN_POINT ('', (-22.5, 2.75545529808154E-15, -27.1974634626601));
#120 = VERTEX_POINT ('', #110);
#130 = CARTESIAN_POINT ('', (1.37772764904077E-15, 22.5, -27.1974634626601));
#140 = CARTESIAN_POINT ('', (-22.5, 22.5, -27.1974634626601));
#150 = CARTESIAN_POINT ('', (-22.5, 2.75545529808154E-15, -27.1974634626601));
#160 = (
   BOUNDED_CURVE ()
   B_SPLINE_CURVE (2, (#130, #140, #150), .UNSPECIFIED., .F., .U.)
   B_SPLINE_CURVE_WITH_KNOTS ((3, 3), (1.5707963267949, 3.14159265358979), .UNSPECIFIED.)
   CURVE ()
   GEOMETRIC_REPRESENTATION_ITEM ()
   RATIONAL_B_SPLINE_CURVE ((1., 0.707106781186548, 1.))
   REPRESENTATION_ITEM ('')
);
#170 = EDGE_CURVE ('', #40, #120, #160, .T.);
#180 = ORIENTED_EDGE ('', *, *, #170, .T.);
#190 = CARTESIAN_POINT ('', (-22.5, 2.75545529808154E-15, -24.17727527272));
#200 = VERTEX_POINT ('', #190);
#210 = CARTESIAN_POINT ('', (-22.5, 2.75545529808154E-15, -27.1974634626601));
#220 = CARTESIAN_POINT ('', (-22.5, 2.75545529808154E-15, -24.17727527272));
#230 = B_SPLINE_CURVE_WITH_KNOTS ('', 1, (#210, #220), .UNSPECIFIED., .F., .U., (2, 2), (0., 1.), .UNSPECIFIED.);
#240 = EDGE_CURVE ('', #120, #200, #230, .T.);
#250 = ORIENTED_EDGE ('', *, *, #240, .T.);
#260 = CARTESIAN_POINT ('', (22.5, 0., -24.17727527272));
#270 = VERTEX_POINT ('', #260);
#280 = CARTESIAN_POINT ('', (22.5, 0., -24.17727527272));
#290 = CARTESIAN_POINT ('', (22.5, 22.5, -24.17727527272));
#300 = CARTESIAN_POINT ('', (1.37772764904077E-15, 22.5, -24.17727527272));
#310 = CARTESIAN_POINT ('', (-22.5, 22.5, -24.17727527272));
#320 = CARTESIAN_POINT ('', (-22.5, 2.75545529808154E-15, -24.17727527272));
#330 = (
   BOUNDED_CURVE ()
   B_SPLINE_CURVE (2, (#280, #290, #300, #310, #320), .UNSPECIFIED., .F., .U.)
   B_SPLINE_CURVE_WITH_KNOTS ((3, 2, 3), (0., 1.5707963267949, 3.14159265358979), .UNSPECIFIED.)
   CURVE ()
   GEOMETRIC_REPRESENTATION_ITEM ()
   RATIONAL_B_SPLINE_CURVE ((1., 0.707106781186548, 1., 0.707106781186548, 1.))
   REPRESENTATION_ITEM ('')
);
#340 = EDGE_CURVE ('', #270, #200, #330, .T.);
#350 = ORIENTED_EDGE ('', *, *, #340, .F.);
#360 = CARTESIAN_POINT ('', (22.5, 0., -27.1974634626601));
#370 = CARTESIAN_POINT ('', (22.5, 0., -24.17727527272));
#380 = B_SPLINE_CURVE_WITH_KNOTS ('', 1, (#360, #370), .UNSPECIFIED., .F., .U., (2, 2), (0., 1.), .UNSPECIFIED.);
#390 = EDGE_CURVE ('', #20, #270, #380, .T.);
#400 = ORIENTED_EDGE ('', *, *, #390, .F.);
#410 = EDGE_LOOP ('', (#100, #180, #250, #350, #400));
#420 = FACE_OUTER_BOUND ('', #410, .T.);
#430 = CARTESIAN_POINT ('', (-5.32907051820075E-15, -5.32907051820075E-15, -27.1974634626601));
#440 = DIRECTION ('', (0., 0., 1.));
#450 = DIRECTION ('', (1., 2.368475785867E-16, 0.));
#460 = AXIS2_PLACEMENT_3D ('', #430, #440, #450);
#470 = CYLINDRICAL_SURFACE ('', #460, 22.5);
#480 = ADVANCED_FACE ('', (#420), #470, .T.);
#490 = CARTESIAN_POINT ('', (-22.5, 2.75545529808154E-15, -27.1974634626601));
#500 = CARTESIAN_POINT ('', (-22.5, -22.5, -27.1974634626601));
#510 = CARTESIAN_POINT ('', (-4.13318294712232E-15, -22.5, -27.1974634626601));
#520 = CARTESIAN_POINT ('', (22.5, -22.5, -27.1974634626601));
#530 = CARTESIAN_POINT ('', (22.5, -5.51091059616309E-15, -27.1974634626601));
#540 = (
   BOUNDED_CURVE ()
   B_SPLINE_CURVE (2, (#490, #500, #510, #520, #530), .UNSPECIFIED., .F., .U.)
   B_SPLINE_CURVE_WITH_KNOTS ((3, 2, 3), (3.14159265358979, 4.71238898038469, 6.28318530717959), .UNSPECIFIED.)
   CURVE ()
   GEOMETRIC_REPRESENTATION_ITEM ()
   RATIONAL_B_SPLINE_CURVE ((1., 0.707106781186548, 1., 0.707106781186548, 1.))
   REPRESENTATION_ITEM ('')
);
#550 = EDGE_CURVE ('', #120, #20, #540, .T.);
#560 = ORIENTED_EDGE ('', *, *, #550, .T.);
#570 = ORIENTED_EDGE ('', *, *, #390, .T.);
#580 = CARTESIAN_POINT ('', (-22.5, 2.75545529808154E-15, -24.17727527272));
#590 = CARTESIAN_POINT ('', (-22.5, -22.5, -24.17727527272));
#600 = CARTESIAN_POINT ('', (-4.13318294712232E-15, -22.5, -24.17727527272));
#610 = CARTESIAN_POINT ('', (22.5, -22.5, -24.17727527272));
#620 = CARTESIAN_POINT ('', (22.5, -5.51091059616309E-15, -24.17727527272));
#630 = (
   BOUNDED_CURVE ()
   B_SPLINE_CURVE (2, (#580, #590, #600, #610, #620), .UNSPECIFIED., .F., .U.)
   B_SPLINE_CURVE_WITH_KNOTS ((3, 2, 3), (3.14159265358979, 4.71238898038469, 6.28318530717959), .UNSPECIFIED.)
   CURVE ()
   GEOMETRIC_REPRESENTATION_ITEM ()
   RATIONAL_B_SPLINE_CURVE ((1., 0.707106781186548, 1., 0.707106781186548, 1.))
   REPRESENTATION_ITEM ('')
);
#640 = EDGE_CURVE ('', #200, #270, #630, .T.);
#650 = ORIENTED_EDGE ('', *, *, #640, .F.);
#660 = ORIENTED_EDGE ('', *, *, #240, .F.);
#670 = EDGE_LOOP ('', (#560, #570, #650, #660));
#680 = FACE_OUTER_BOUND ('', #670, .T.);
#690 = CARTESIAN_POINT ('', (3.5527136788005E-15, 3.5527136788005E-15, -27.1974634626601));
#700 = DIRECTION ('', (0., 0., 1.));
#710 = DIRECTION ('', (-1., -3.54337058097314E-17, 0.));
#720 = AXIS2_PLACEMENT_3D ('', #690, #700, #710);
#730 = CYLINDRICAL_SURFACE ('', #720, 22.5);
#740 = ADVANCED_FACE ('', (#680), #730, .T.);
#750 = CARTESIAN_POINT ('', (0., 0., -38.07727527272));
#760 = VERTEX_POINT ('', #750);
#770 = CARTESIAN_POINT ('', (0., 0., -38.07727527272));
#780 = CARTESIAN_POINT ('', (0., 0.978828578305369, -38.07727527272));
#790 = CARTESIAN_POINT ('', (0., 2.43144449037723, -37.9911226954734));
#800 = CARTESIAN_POINT ('', (0., 4.82259345534324, -37.6399073291042));
#810 = CARTESIAN_POINT ('', (0., 6.70404907041769, -37.19897540296));
#820 = CARTESIAN_POINT ('', (0., 9.056323781314, -36.4414816376892));
#830 = CARTESIAN_POINT ('', (0., 10.9366356175606, -35.662158161747));
#840 = CARTESIAN_POINT ('', (0., 12.7924186192263, -34.7214407083567));
#850 = CARTESIAN_POINT ('', (0., 14.2002987774444, -33.9169559178509));
#860 = CARTESIAN_POINT ('', (0., 15.6080031401529, -33.0195346444719));
#870 = CARTESIAN_POINT ('', (0., 17.0154980333864, -32.0269798094547));
#880 = CARTESIAN_POINT ('', (1.57772181044202E-30, 18.4227457699886, -30.9372073391281));
#890 = CARTESIAN_POINT ('', (0., 20.2903486533295, -29.3591694808977));
#900 = CARTESIAN_POINT ('', (0., 21.6318900617337, -28.0807245528957));
#910 = CARTESIAN_POINT ('', (0., 22.5, -27.1974634626601));
#920 = B_SPLINE_CURVE_WITH_KNOTS ('', 3, (#770, #780, #790, #800, #810, #820, #830, #840, #850, #860, #870, #880, #890, #900, #910), .UNSPECIFIED., .F., .U., (4, 1, 1, 1, 1, 1, 1, 1, 1, 1, 1, 1, 4), (0., 0.114323598237964, 0.169665549781721, 0.282162559857994, 0.339681086361631, 0.45819047850621, 0.519563856930482, 0.582608739579746, 0.647520357723125, 0.714491838118839, 0.783710569061318, 0.85535325720931, 1.), .UNSPECIFIED.);
#930 = EDGE_CURVE ('', #760, #40, #920, .T.);
#940 = ORIENTED_EDGE ('', *, *, #930, .T.);
#950 = ORIENTED_EDGE ('', *, *, #90, .F.);
#960 = ORIENTED_EDGE ('', *, *, #550, .F.);
#970 = ORIENTED_EDGE ('', *, *, #170, .F.);
#980 = ORIENTED_EDGE ('', *, *, #930, .F.);
#990 = EDGE_LOOP ('', (#940, #950, #960, #970, #980));
#1000 = FACE_OUTER_BOUND ('', #990, .T.);
#1010 = CARTESIAN_POINT ('', (0., 22.5, -27.1974634626601));
#1020 = CARTESIAN_POINT ('', (-22.5, 22.5, -27.1974634626601));
#1030 = CARTESIAN_POINT ('', (-22.5, 7.09537622586033E-15, -27.1974634626601));
#1040 = CARTESIAN_POINT ('', (-22.5, -22.5, -27.1974634626601));
#1050 = CARTESIAN_POINT ('', (-1.96308452723839E-14, -22.5, -27.1974634626601));
#1060 = CARTESIAN_POINT ('', (22.5, -22.5, -27.1974634626601));
#1070 = CARTESIAN_POINT ('', (22.5, -1.52909243446051E-14, -27.1974634626601));
#1080 = CARTESIAN_POINT ('', (22.5, 22.5, -27.1974634626601));
#1090 = CARTESIAN_POINT ('', (0., 22.5, -27.1974634626601));
#1100 = CARTESIAN_POINT ('', (0., 21.6318900617337, -28.0807245528957));
#1110 = CARTESIAN_POINT ('', (-21.6318900617337, 21.6318900617337, -28.0807245528957));
#1120 = CARTESIAN_POINT ('', (-21.6318900617337, 7.63541074678621E-15, -28.0807245528957));
#1130 = CARTESIAN_POINT ('', (-21.6318900617337, -21.6318900617337, -28.0807245528957));
#1140 = CARTESIAN_POINT ('', (-2.04319833135928E-14, -21.6318900617337, -28.0807245528957));
#1150 = CARTESIAN_POINT ('', (21.6318900617337, -21.6318900617337, -28.0807245528957));
#1160 = CARTESIAN_POINT ('', (21.6318900617337, -1.54457150591676E-14, -28.0807245528957));
#1170 = CARTESIAN_POINT ('', (21.6318900617337, 21.6318900617337, -28.0807245528957));
#1180 = CARTESIAN_POINT ('', (0., 21.6318900617337, -28.0807245528957));
#1190 = CARTESIAN_POINT ('', (0., 20.2903486533295, -29.3591694808977));
#1200 = CARTESIAN_POINT ('', (-20.2903486533295, 20.2903486533295, -29.3591694808977));
#1210 = CARTESIAN_POINT ('', (-20.2903486533295, 8.4118581841213E-15, -29.3591694808977));
#1220 = CARTESIAN_POINT ('', (-20.2903486533295, -20.2903486533295, -29.3591694808977));
#1230 = CARTESIAN_POINT ('', (-2.15811494075247E-14, -20.2903486533295, -29.3591694808977));
#1240 = CARTESIAN_POINT ('', (20.2903486533295, -20.2903486533295, -29.3591694808977));
#1250 = CARTESIAN_POINT ('', (20.2903486533295, -1.56541422765918E-14, -29.3591694808977));
#1260 = CARTESIAN_POINT ('', (20.2903486533295, 20.2903486533295, -29.3591694808977));
#1270 = CARTESIAN_POINT ('', (0., 20.2903486533295, -29.3591694808977));
#1280 = CARTESIAN_POINT ('', (1.57772181044202E-30, 18.4227457699886, -30.9372073391281));
#1290 = CARTESIAN_POINT ('', (-18.4227457699886, 18.4227457699886, -30.9372073391281));
#1300 = CARTESIAN_POINT ('', (-18.4227457699886, 9.3572978078796E-15, -30.9372073391281));
#1310 = CARTESIAN_POINT ('', (-18.4227457699887, -18.4227457699886, -30.9372073391281));
#1320 = CARTESIAN_POINT ('', (-2.29736893941879E-14, -18.4227457699886, -30.9372073391281));
#1330 = CARTESIAN_POINT ('', (18.4227457699886, -18.4227457699887, -30.9372073391281));
#1340 = CARTESIAN_POINT ('', (18.4227457699886, -1.58725272501805E-14, -30.9372073391281));
#1350 = CARTESIAN_POINT ('', (18.4227457699886, 18.4227457699886, -30.9372073391281));
#1360 = CARTESIAN_POINT ('', (1.57772181044202E-30, 18.4227457699886, -30.9372073391281));
#1370 = CARTESIAN_POINT ('', (0., 17.0154980333864, -32.0269798094547));
#1380 = CARTESIAN_POINT ('', (-17.0154980333864, 17.0154980333864, -32.0269798094547));
#1390 = CARTESIAN_POINT ('', (-17.0154980333864, 1.00030110136141E-14, -32.0269798094547));
#1400 = CARTESIAN_POINT ('', (-17.0154980333864, -17.0154980333864, -32.0269798094547));
#1410 = CARTESIAN_POINT ('', (-2.39209691779139E-14, -17.0154980333864, -32.0269798094547));
#1420 = CARTESIAN_POINT ('', (17.0154980333864, -17.0154980333864, -32.0269798094547));
#1430 = CARTESIAN_POINT ('', (17.0154980333864, -1.60017556845483E-14, -32.0269798094547));
#1440 = CARTESIAN_POINT ('', (17.0154980333864, 17.0154980333864, -32.0269798094547));
#1450 = CARTESIAN_POINT ('', (0., 17.0154980333864, -32.0269798094547));
#1460 = CARTESIAN_POINT ('', (0., 15.6080031401529, -33.0195346444719));
#1470 = CARTESIAN_POINT ('', (-15.6080031401529, 15.6080031401529, -33.0195346444718));
#1480 = CARTESIAN_POINT ('', (-15.6080031401529, 1.05834185166636E-14, -33.0195346444718));
#1490 = CARTESIAN_POINT ('', (-15.6080031401529, -15.6080031401529, -33.0195346444718));
#1500 = CARTESIAN_POINT ('', (-2.47683385716285E-14, -15.6080031401529, -33.0195346444719));
#1510 = CARTESIAN_POINT ('', (15.6080031401529, -15.6080031401529, -33.0195346444719));
#1520 = CARTESIAN_POINT ('', (15.6080031401529, -1.60963491636319E-14, -33.0195346444719));
#1530 = CARTESIAN_POINT ('', (15.6080031401529, 15.6080031401529, -33.0195346444719));
#1540 = CARTESIAN_POINT ('', (0., 15.6080031401529, -33.0195346444719));
#1550 = CARTESIAN_POINT ('', (0., 14.2002987774444, -33.9169559178509));
#1560 = CARTESIAN_POINT ('', (-14.2002987774444, 14.2002987774444, -33.9169559178509));
#1570 = CARTESIAN_POINT ('', (-14.2002987774444, 1.10999222715324E-14, -33.9169559178509));
#1580 = CARTESIAN_POINT ('', (-14.2002987774444, -14.2002987774444, -33.9169559178509));
#1590 = CARTESIAN_POINT ('', (-2.55179433406033E-14, -14.2002987774444, -33.9169559178509));
#1600 = CARTESIAN_POINT ('', (14.2002987774444, -14.2002987774444, -33.9169559178509));
#1610 = CARTESIAN_POINT ('', (14.2002987774444, -1.61570561135442E-14, -33.9169559178509));
#1620 = CARTESIAN_POINT ('', (14.2002987774444, 14.2002987774444, -33.9169559178509));
#1630 = CARTESIAN_POINT ('', (0., 14.2002987774444, -33.9169559178509));
#1640 = CARTESIAN_POINT ('', (0., 12.7924186192263, -34.7214407083567));
#1650 = CARTESIAN_POINT ('', (-12.7924186192263, 12.7924186192263, -34.7214407083567));
#1660 = CARTESIAN_POINT ('', (-12.7924186192263, 1.15539998802841E-14, -34.7214407083567));
#1670 = CARTESIAN_POINT ('', (-12.7924186192263, -12.7924186192263, -34.7214407083567));
#1680 = CARTESIAN_POINT ('', (-2.61720448585851E-14, -12.7924186192263, -34.7214407083567));
#1690 = CARTESIAN_POINT ('', (12.7924186192263, -12.7924186192263, -34.7214407083567));
#1700 = CARTESIAN_POINT ('', (12.7924186192263, -1.61846644298399E-14, -34.7214407083567));
#1710 = CARTESIAN_POINT ('', (12.7924186192263, 12.7924186192263, -34.7214407083567));
#1720 = CARTESIAN_POINT ('', (0., 12.7924186192263, -34.7214407083567));
#1730 = CARTESIAN_POINT ('', (0., 10.9366356175606, -35.662158161747));
#1740 = CARTESIAN_POINT ('', (-10.9366356175606, 10.9366356175606, -35.662158161747));
#1750 = CARTESIAN_POINT ('', (-10.9366356175606, 1.20721440919697E-14, -35.662158161747));
#1760 = CARTESIAN_POINT ('', (-10.9366356175606, -10.9366356175606, -35.662158161747));
#1770 = CARTESIAN_POINT ('', (-2.69112577473301E-14, -10.9366356175606, -35.662158161747));
#1780 = CARTESIAN_POINT ('', (10.9366356175606, -10.9366356175606, -35.6621581617471));
#1790 = CARTESIAN_POINT ('', (10.9366356175606, -1.6178465235609E-14, -35.6621581617471));
#1800 = CARTESIAN_POINT ('', (10.9366356175606, 10.9366356175606, -35.6621581617471));
#1810 = CARTESIAN_POINT ('', (0., 10.9366356175606, -35.662158161747));
#1820 = CARTESIAN_POINT ('', (0., 9.056323781314, -36.4414816376892));
#1830 = CARTESIAN_POINT ('', (-9.056323781314, 9.05632378131402, -36.4414816376892));
#1840 = CARTESIAN_POINT ('', (-9.05632378131402, 1.24803954705455E-14, -36.4414816376892));
#1850 = CARTESIAN_POINT ('', (-9.05632378131403, -9.05632378131399, -36.4414816376892));
#1860 = CARTESIAN_POINT ('', (-2.74816526668648E-14, -9.05632378131401, -36.4414816376892));
#1870 = CARTESIAN_POINT ('', (9.05632378131398, -9.05632378131402, -36.4414816376892));
#1880 = CARTESIAN_POINT ('', (9.05632378131399, -1.61103369894021E-14, -36.4414816376892));
#1890 = CARTESIAN_POINT ('', (9.05632378131401, 9.05632378131399, -36.4414816376892));
#1900 = CARTESIAN_POINT ('', (0., 9.056323781314, -36.4414816376892));
#1910 = CARTESIAN_POINT ('', (0., 6.70404907041769, -37.19897540296));
#1920 = CARTESIAN_POINT ('', (-6.70404907041769, 6.7040490704177, -37.19897540296));
#1930 = CARTESIAN_POINT ('', (-6.7040490704177, 1.28450868027973E-14, -37.19897540296));
#1940 = CARTESIAN_POINT ('', (-6.70404907041771, -6.70404907041767, -37.19897540296));
#1950 = CARTESIAN_POINT ('', (-2.79718212459033E-14, -6.70404907041769, -37.19897540296));
#1960 = CARTESIAN_POINT ('', (6.70404907041766, -6.7040490704177, -37.19897540296));
#1970 = CARTESIAN_POINT ('', (6.70404907041767, -1.59477436666473E-14, -37.19897540296));
#1980 = CARTESIAN_POINT ('', (6.70404907041769, 6.70404907041767, -37.19897540296));
#1990 = CARTESIAN_POINT ('', (0., 6.70404907041769, -37.19897540296));
#2000 = CARTESIAN_POINT ('', (0., 4.82259345534324, -37.6399073291042));
#2010 = CARTESIAN_POINT ('', (-4.82259345534324, 4.82259345534325, -37.6399073291042));
#2020 = CARTESIAN_POINT ('', (-4.82259345534325, 1.3026007148065E-14, -37.6399073291042));
#2030 = CARTESIAN_POINT ('', (-4.82259345534327, -4.82259345534322, -37.6399073291042));
#2040 = CARTESIAN_POINT ('', (-2.81944170577335E-14, -4.82259345534324, -37.6399073291042));
#2050 = CARTESIAN_POINT ('', (4.82259345534321, -4.82259345534325, -37.6399073291042));
#2060 = CARTESIAN_POINT ('', (4.82259345534322, -1.5759007273536E-14, -37.6399073291042));
#2070 = CARTESIAN_POINT ('', (4.82259345534324, 4.82259345534322, -37.6399073291042));
#2080 = CARTESIAN_POINT ('', (0., 4.82259345534324, -37.6399073291042));
#2090 = CARTESIAN_POINT ('', (0., 2.43144449037723, -37.9911226954734));
#2100 = CARTESIAN_POINT ('', (-2.43144449037723, 2.43144449037725, -37.9911226954734));
#2110 = CARTESIAN_POINT ('', (-2.43144449037725, 1.31154648691276E-14, -37.9911226954734));
#2120 = CARTESIAN_POINT ('', (-2.43144449037726, -2.43144449037722, -37.9911226954734));
#2130 = CARTESIAN_POINT ('', (-2.82624198210761E-14, -2.43144449037723, -37.9911226954734));
#2140 = CARTESIAN_POINT ('', (2.4314444903772, -2.43144449037725, -37.9911226954734));
#2150 = CARTESIAN_POINT ('', (2.43144449037722, -1.5444721023193E-14, -37.9911226954734));
#2160 = CARTESIAN_POINT ('', (2.43144449037723, 2.43144449037722, -37.9911226954734));
#2170 = CARTESIAN_POINT ('', (0., 2.43144449037723, -37.9911226954734));
#2180 = CARTESIAN_POINT ('', (0., 0.978828578305369, -38.07727527272));
#2190 = CARTESIAN_POINT ('', (-0.97882857830537, 0.978828578305383, -38.07727527272));
#2200 = CARTESIAN_POINT ('', (-0.978828578305384, 1.30843771639873E-14, -38.07727527272));
#2210 = CARTESIAN_POINT ('', (-0.978828578305398, -0.978828578305357, -38.07727527272));
#2220 = CARTESIAN_POINT ('', (-2.81730377050489E-14, -0.978828578305371, -38.07727527272));
#2230 = CARTESIAN_POINT ('', (0.978828578305342, -0.978828578305385, -38.07727527272));
#2240 = CARTESIAN_POINT ('', (0.978828578305356, -1.52085324695952E-14, -38.07727527272));
#2250 = CARTESIAN_POINT ('', (0.97882857830537, 0.978828578305355, -38.07727527272));
#2260 = CARTESIAN_POINT ('', (0., 0.978828578305369, -38.07727527272));
#2270 = CARTESIAN_POINT ('', (0., 0., -38.07727527272));
#2280 = CARTESIAN_POINT ('', (0., 0., -38.07727527272));
#2290 = CARTESIAN_POINT ('', (0., 0., -38.07727527272));
#2300 = CARTESIAN_POINT ('', (0., 0., -38.07727527272));
#2310 = CARTESIAN_POINT ('', (0., 0., -38.07727527272));
#2320 = CARTESIAN_POINT ('', (0., 0., -38.07727527272));
#2330 = CARTESIAN_POINT ('', (0., 0., -38.07727527272));
#2340 = CARTESIAN_POINT ('', (0., 0., -38.07727527272));
#2350 = CARTESIAN_POINT ('', (0., 0., -38.07727527272));
#2360 = (
   BOUNDED_SURFACE ()
   B_SPLINE_SURFACE (3, 2, ((#1010, #1020, #1030, #1040, #1050, #1060, #1070, #1080, #1090), (#1100, #1110, #1120, #1130, #1140, #1150, #1160, #1170, #1180), (#1190, #1200, #1210, #1220, #1230, #1240, #1250, #1260, #1270), (#1280, #1290, #1300, #1310, #1320, #1330, #1340, #1350, #1360), (#1370, #1380, #1390, #1400, #1410, #1420, #1430, #1440, #1450), (#1460, #1470, #1480, #1490, #1500, #1510, #1520, #1530, #1540), (#1550, #1560, #1570, #1580, #1590, #1600, #1610, #1620, #1630), (#1640, #1650, #1660, #1670, #1680, #1690, #1700, #1710, #1720), (#1730, #1740, #1750, #1760, #1770, #1780, #1790, #1800, #1810), (#1820, #1830, #1840, #1850, #1860, #1870, #1880, #1890, #1900), (#1910, #1920, #1930, #1940, #1950, #1960, #1970, #1980, #1990), (#2000, #2010, #2020, #2030, #2040, #2050, #2060, #2070, #2080), (#2090, #2100, #2110, #2120, #2130, #2140, #2150, #2160, #2170), (#2180, #2190, #2200, #2210, #2220, #2230, #2240, #2250, #2260), (#2270, #2280, #2290, #2300, #2310, #2320, #2330, #2340, #2350)), .UNSPECIFIED., .F., .T., .U.)
   B_SPLINE_SURFACE_WITH_KNOTS ((4, 1, 1, 1, 1, 1, 1, 1, 1, 1, 1, 1, 4), (3, 2, 2, 2, 3), (0., 0.14464674279069, 0.216289430938682, 0.285508161881161, 0.352479642276875, 0.417391260420254, 0.480436143069518, 0.54180952149379, 0.660318913638369, 0.717837440142006, 0.830334450218279, 0.885676401762036, 1.), (0., 90., 180., 270., 360.), .UNSPECIFIED.)
   SURFACE ()
   GEOMETRIC_REPRESENTATION_ITEM ()
   RATIONAL_B_SPLINE_SURFACE (((1., 0.707106781186548, 1., 0.707106781186548, 1., 0.707106781186548, 1., 0.707106781186548, 1.), (1., 0.707106781186548, 1., 0.707106781186548, 1., 0.707106781186548, 1., 0.707106781186548, 1.), (1., 0.707106781186548, 1., 0.707106781186548, 1., 0.707106781186548, 1., 0.707106781186548, 1.), (1., 0.707106781186548, 1., 0.707106781186548, 1., 0.707106781186548, 1., 0.707106781186548, 1.), (1., 0.707106781186548, 1., 0.707106781186548, 1., 0.707106781186548, 1., 0.707106781186548, 1.), (1., 0.707106781186548, 1., 0.707106781186548, 1., 0.707106781186548, 1., 0.707106781186548, 1.), (1., 0.707106781186548, 1., 0.707106781186548, 1., 0.707106781186548, 1., 0.707106781186548, 1.), (1., 0.707106781186548, 1., 0.707106781186548, 1., 0.707106781186548, 1., 0.707106781186548, 1.), (1., 0.707106781186548, 1., 0.707106781186548, 1., 0.707106781186548, 1., 0.707106781186548, 1.), (1., 0.707106781186548, 1., 0.707106781186548, 1., 0.707106781186548, 1., 0.707106781186548, 1.), (1., 0.707106781186548, 1., 0.707106781186548, 1., 0.707106781186548, 1., 0.707106781186548, 1.), (1., 0.707106781186548, 1., 0.707106781186548, 1., 0.707106781186548, 1., 0.707106781186548, 1.), (1., 0.707106781186548, 1., 0.707106781186548, 1., 0.707106781186548, 1., 0.707106781186548, 1.), (1., 0.707106781186548, 1., 0.707106781186548, 1., 0.707106781186548, 1., 0.707106781186548, 1.), (1., 0.707106781186548, 1., 0.707106781186548, 1., 0.707106781186548, 1., 0.707106781186548, 1.)))
   REPRESENTATION_ITEM ('')
);
#2370 = ADVANCED_FACE ('', (#1000), #2360, .T.);
#2380 = ORIENTED_EDGE ('', *, *, #340, .T.);
#2390 = ORIENTED_EDGE ('', *, *, #640, .T.);
#2400 = EDGE_LOOP ('', (#2380, #2390));
#2410 = FACE_OUTER_BOUND ('', #2400, .T.);
#2420 = CARTESIAN_POINT ('', (0., 46.104, -24.17727527272));
#2430 = DIRECTION ('', (0., 0., 1.));
#2440 = DIRECTION ('', (-0.707106781186548, -0.707106781186548, 0.));
#2450 = AXIS2_PLACEMENT_3D ('', #2420, #2430, #2440);
#2460 = PLANE ('', #2450);
#2470 = ADVANCED_FACE ('', (#2410), #2460, .T.);
#2480 = CLOSED_SHELL ('', (#480, #740, #2370, #2470));
#2490 = MANIFOLD_SOLID_BREP ('', #2480);
#2500 = (
   LENGTH_UNIT ()
   NAMED_UNIT (*)
   SI_UNIT (.MILLI., .METRE.)
);
#2510 = (
   NAMED_UNIT (*)
   SI_UNIT ($, .STERADIAN.)
   SOLID_ANGLE_UNIT ()
);
#2520 = (
   NAMED_UNIT (*)
   SI_UNIT ($, .RADIAN.)
   PLANE_ANGLE_UNIT ()
);
#2530 = UNCERTAINTY_MEASURE_WITH_UNIT (LENGTH_MEASURE(0.0001), #2500, 'DISTANCE_ACCURACY_VALUE', '');
#2540 = (
   GEOMETRIC_REPRESENTATION_CONTEXT (3)
   GLOBAL_UNCERTAINTY_ASSIGNED_CONTEXT ((#2530))
   GLOBAL_UNIT_ASSIGNED_CONTEXT ((#2500, #2510, #2520))
   REPRESENTATION_CONTEXT ('', '3D')
);
#2550 = ADVANCED_BREP_SHAPE_REPRESENTATION ('', (#2490), #2540);
#2560 = APPLICATION_CONTEXT ('configuration controlled 3D designs of mechanical parts and assemblies');
#2570 = APPLICATION_PROTOCOL_DEFINITION ('International Standard', 'config_control_design', 1997, #2560);
#2580 = MECHANICAL_CONTEXT ('', #2560, 'mechanical');
#2590 = PRODUCT ('NONE', '', '', (#2580));
#2600 = PERSON_AND_ORGANIZATION_ROLE ('design_owner');
#2610 = PERSON ('', '', $, $, $, $);
#2620 = ORGANIZATION ($, '', '');
#2630 = PERSON_AND_ORGANIZATION (#2610, #2620);
#2640 = CC_DESIGN_PERSON_AND_ORGANIZATION_ASSIGNMENT (#2630, #2600, (#2590));
#2650 = PRODUCT_RELATED_PRODUCT_CATEGORY ('detail', $, (#2590));
#2660 = PRODUCT_DEFINITION_FORMATION_WITH_SPECIFIED_SOURCE ('', '', #2590, .NOT_KNOWN.);
#2670 = APPROVAL_STATUS ('approved');
#2680 = APPROVAL (#2670, '');
#2690 = CALENDAR_DATE (2016, 24, 5);
#2700 = COORDINATED_UNIVERSAL_TIME_OFFSET (0, $, .AHEAD.);
#2710 = LOCAL_TIME (14, 18, 48., #2700);
#2720 = DATE_AND_TIME (#2690, #2710);
#2730 = APPROVAL_DATE_TIME (#2720, #2680);
#2740 = APPROVAL_ROLE ('');
#2750 = PERSON ('', '', $, $, $, $);
#2760 = ORGANIZATION ($, '', '');
#2770 = PERSON_AND_ORGANIZATION (#2750, #2760);
#2780 = APPROVAL_PERSON_ORGANIZATION (#2770, #2680, #2740);
#2790 = CC_DESIGN_APPROVAL (#2680, (#2660));
#2800 = PERSON_AND_ORGANIZATION_ROLE ('creator');
#2810 = PERSON ('', '', $, $, $, $);
#2820 = ORGANIZATION ($, '', '');
#2830 = PERSON_AND_ORGANIZATION (#2810, #2820);
#2840 = CC_DESIGN_PERSON_AND_ORGANIZATION_ASSIGNMENT (#2830, #2800, (#2660));
#2850 = PERSON_AND_ORGANIZATION_ROLE ('part_supplier');
#2860 = PERSON ('', '', $, $, $, $);
#2870 = ORGANIZATION ($, '', '');
#2880 = PERSON_AND_ORGANIZATION (#2860, #2870);
#2890 = CC_DESIGN_PERSON_AND_ORGANIZATION_ASSIGNMENT (#2880, #2850, (#2660));
#2900 = SECURITY_CLASSIFICATION_LEVEL ('unclassified');
#2910 = SECURITY_CLASSIFICATION ('', '', #2900);
#2920 = APPROVAL_STATUS ('approved');
#2930 = APPROVAL (#2920, '');
#2940 = CALENDAR_DATE (2016, 24, 5);
#2950 = COORDINATED_UNIVERSAL_TIME_OFFSET (0, $, .AHEAD.);
#2960 = LOCAL_TIME (14, 18, 48., #2950);
#2970 = DATE_AND_TIME (#2940, #2960);
#2980 = APPROVAL_DATE_TIME (#2970, #2930);
#2990 = APPROVAL_ROLE ('');
#3000 = PERSON ('', '', $, $, $, $);
#3010 = ORGANIZATION ($, '', '');
#3020 = PERSON_AND_ORGANIZATION (#3000, #3010);
#3030 = APPROVAL_PERSON_ORGANIZATION (#3020, #2930, #2990);
#3040 = CC_DESIGN_APPROVAL (#2930, (#2910));
#3050 = DATE_TIME_ROLE ('classification_date');
#3060 = CALENDAR_DATE (2016, 24, 5);
#3070 = COORDINATED_UNIVERSAL_TIME_OFFSET (0, $, .AHEAD.);
#3080 = LOCAL_TIME (14, 18, 48., #3070);
#3090 = DATE_AND_TIME (#3060, #3080);
#3100 = CC_DESIGN_DATE_AND_TIME_ASSIGNMENT (#3090, #3050, (#2910));
#3110 = PERSON_AND_ORGANIZATION_ROLE ('classification_officer');
#3120 = PERSON ('', '', $, $, $, $);
#3130 = ORGANIZATION ($, '', '');
#3140 = PERSON_AND_ORGANIZATION (#3120, #3130);
#3150 = CC_DESIGN_PERSON_AND_ORGANIZATION_ASSIGNMENT (#3140, #3110, (#2910));
#3160 = CC_DESIGN_SECURITY_CLASSIFICATION (#2910, (#2660));
#3170 = DESIGN_CONTEXT ('', #2560, 'design');
#3180 = PRODUCT_DEFINITION ('', '', #2660, #3170);
#3190 = APPROVAL_STATUS ('approved');
#3200 = APPROVAL (#3190, '');
#3210 = CALENDAR_DATE (2016, 24, 5);
#3220 = COORDINATED_UNIVERSAL_TIME_OFFSET (0, $, .AHEAD.);
#3230 = LOCAL_TIME (14, 18, 48., #3220);
#3240 = DATE_AND_TIME (#3210, #3230);
#3250 = APPROVAL_DATE_TIME (#3240, #3200);
#3260 = APPROVAL_ROLE ('');
#3270 = PERSON ('', '', $, $, $, $);
#3280 = ORGANIZATION ($, '', '');
#3290 = PERSON_AND_ORGANIZATION (#3270, #3280);
#3300 = APPROVAL_PERSON_ORGANIZATION (#3290, #3200, #3260);
#3310 = CC_DESIGN_APPROVAL (#3200, (#3180));
#3320 = DATE_TIME_ROLE ('creation_date');
#3330 = CALENDAR_DATE (2016, 24, 5);
#3340 = COORDINATED_UNIVERSAL_TIME_OFFSET (0, $, .AHEAD.);
#3350 = LOCAL_TIME (14, 18, 48., #3340);
#3360 = DATE_AND_TIME (#3330, #3350);
#3370 = CC_DESIGN_DATE_AND_TIME_ASSIGNMENT (#3360, #3320, (#3180));
#3380 = PERSON_AND_ORGANIZATION_ROLE ('creator');
#3390 = PERSON ('', '', $, $, $, $);
#3400 = ORGANIZATION ($, '', '');
#3410 = PERSON_AND_ORGANIZATION (#3390, #3400);
#3420 = CC_DESIGN_PERSON_AND_ORGANIZATION_ASSIGNMENT (#3410, #3380, (#3180));
#3430 = PRODUCT_DEFINITION_SHAPE ('', '', #3180);
#3440 = SHAPE_DEFINITION_REPRESENTATION (#3430, #2550);
#3450 = PRESENTATION_LAYER_ASSIGNMENT ('Level 0', 'Level 0', (#2490));
ENDSEC;
END-ISO-10303-21;
