ISO-10303-21;
HEADER;
FILE_DESCRIPTION ((), '1');
FILE_NAME ('\\\\fileserver\\Daten\\Applikationen\\Optikdesign\\SPA-Design\\aktuelle SPA-Designs\\Linsenkataloge - 2016-Juni\\Zemax\\AHL\\AHL30-26.STP', '2016-05-24T14:18:34', ('Unknown'), ('Unknown'), 'HarmonyWare STEP v2.0.1', 'HarmonyWare Translators', '');
FILE_SCHEMA (('CONFIG_CONTROL_DESIGN'));
ENDSEC;

DATA;
#10 = CARTESIAN_POINT ('', (15., 0., -24.3947469728044));
#20 = VERTEX_POINT ('', #10);
#30 = CARTESIAN_POINT ('', (9.18485099360515E-16, 15., -24.3947469728044));
#40 = VERTEX_POINT ('', #30);
#50 = CARTESIAN_POINT ('', (15., 0., -24.3947469728044));
#60 = CARTESIAN_POINT ('', (15., 15., -24.3947469728044));
#70 = CARTESIAN_POINT ('', (9.18485099360515E-16, 15., -24.3947469728044));
#80 = (
   BOUNDED_CURVE ()
   B_SPLINE_CURVE (2, (#50, #60, #70), .UNSPECIFIED., .F., .U.)
   B_SPLINE_CURVE_WITH_KNOTS ((3, 3), (0., 1.5707963267949), .UNSPECIFIED.)
   CURVE ()
   GEOMETRIC_REPRESENTATION_ITEM ()
   RATIONAL_B_SPLINE_CURVE ((1., 0.707106781186548, 1.))
   REPRESENTATION_ITEM ('')
);
#90 = EDGE_CURVE ('', #20, #40, #80, .T.);
#100 = ORIENTED_EDGE ('', *, *, #90, .T.);
#110 = CARTESIAN_POINT ('', (-15., 1.83697019872103E-15, -24.3947469728044));
#120 = VERTEX_POINT ('', #110);
#130 = CARTESIAN_POINT ('', (9.18485099360515E-16, 15., -24.3947469728044));
#140 = CARTESIAN_POINT ('', (-15., 15., -24.3947469728044));
#150 = CARTESIAN_POINT ('', (-15., 1.83697019872103E-15, -24.3947469728044));
#160 = (
   BOUNDED_CURVE ()
   B_SPLINE_CURVE (2, (#130, #140, #150), .UNSPECIFIED., .F., .U.)
   B_SPLINE_CURVE_WITH_KNOTS ((3, 3), (1.5707963267949, 3.14159265358979), .UNSPECIFIED.)
   CURVE ()
   GEOMETRIC_REPRESENTATION_ITEM ()
   RATIONAL_B_SPLINE_CURVE ((1., 0.707106781186548, 1.))
   REPRESENTATION_ITEM ('')
);
#170 = EDGE_CURVE ('', #40, #120, #160, .T.);
#180 = ORIENTED_EDGE ('', *, *, #170, .T.);
#190 = CARTESIAN_POINT ('', (-15., 1.83697019872103E-15, -20.57074100506));
#200 = VERTEX_POINT ('', #190);
#210 = CARTESIAN_POINT ('', (-15., 1.83697019872103E-15, -24.3947469728044));
#220 = CARTESIAN_POINT ('', (-15., 1.83697019872103E-15, -20.57074100506));
#230 = B_SPLINE_CURVE_WITH_KNOTS ('', 1, (#210, #220), .UNSPECIFIED., .F., .U., (2, 2), (0., 1.), .UNSPECIFIED.);
#240 = EDGE_CURVE ('', #120, #200, #230, .T.);
#250 = ORIENTED_EDGE ('', *, *, #240, .T.);
#260 = CARTESIAN_POINT ('', (15., 0., -20.57074100506));
#270 = VERTEX_POINT ('', #260);
#280 = CARTESIAN_POINT ('', (15., 0., -20.57074100506));
#290 = CARTESIAN_POINT ('', (15., 15., -20.57074100506));
#300 = CARTESIAN_POINT ('', (9.18485099360515E-16, 15., -20.57074100506));
#310 = CARTESIAN_POINT ('', (-15., 15., -20.57074100506));
#320 = CARTESIAN_POINT ('', (-15., 1.83697019872103E-15, -20.57074100506));
#330 = (
   BOUNDED_CURVE ()
   B_SPLINE_CURVE (2, (#280, #290, #300, #310, #320), .UNSPECIFIED., .F., .U.)
   B_SPLINE_CURVE_WITH_KNOTS ((3, 2, 3), (0., 1.5707963267949, 3.14159265358979), .UNSPECIFIED.)
   CURVE ()
   GEOMETRIC_REPRESENTATION_ITEM ()
   RATIONAL_B_SPLINE_CURVE ((1., 0.707106781186548, 1., 0.707106781186548, 1.))
   REPRESENTATION_ITEM ('')
);
#340 = EDGE_CURVE ('', #270, #200, #330, .T.);
#350 = ORIENTED_EDGE ('', *, *, #340, .F.);
#360 = CARTESIAN_POINT ('', (15., 0., -24.3947469728044));
#370 = CARTESIAN_POINT ('', (15., 0., -20.57074100506));
#380 = B_SPLINE_CURVE_WITH_KNOTS ('', 1, (#360, #370), .UNSPECIFIED., .F., .U., (2, 2), (0., 1.), .UNSPECIFIED.);
#390 = EDGE_CURVE ('', #20, #270, #380, .T.);
#400 = ORIENTED_EDGE ('', *, *, #390, .F.);
#410 = EDGE_LOOP ('', (#100, #180, #250, #350, #400));
#420 = FACE_OUTER_BOUND ('', #410, .T.);
#430 = CARTESIAN_POINT ('', (1.77635683940025E-15, 2.66453525910038E-15, -24.3947469728044));
#440 = DIRECTION ('', (-2.368475785867E-16, 4.20725816117873E-32, 1.));
#450 = DIRECTION ('', (1., -1.77635683940025E-16, 2.368475785867E-16));
#460 = AXIS2_PLACEMENT_3D ('', #430, #440, #450);
#470 = CYLINDRICAL_SURFACE ('', #460, 15.);
#480 = ADVANCED_FACE ('', (#420), #470, .T.);
#490 = CARTESIAN_POINT ('', (-15., 1.83697019872103E-15, -24.3947469728044));
#500 = CARTESIAN_POINT ('', (-15., -15., -24.3947469728044));
#510 = CARTESIAN_POINT ('', (-2.75545529808154E-15, -15., -24.3947469728044));
#520 = CARTESIAN_POINT ('', (15., -15., -24.3947469728044));
#530 = CARTESIAN_POINT ('', (15., -3.67394039744206E-15, -24.3947469728044));
#540 = (
   BOUNDED_CURVE ()
   B_SPLINE_CURVE (2, (#490, #500, #510, #520, #530), .UNSPECIFIED., .F., .U.)
   B_SPLINE_CURVE_WITH_KNOTS ((3, 2, 3), (3.14159265358979, 4.71238898038469, 6.28318530717959), .UNSPECIFIED.)
   CURVE ()
   GEOMETRIC_REPRESENTATION_ITEM ()
   RATIONAL_B_SPLINE_CURVE ((1., 0.707106781186548, 1., 0.707106781186548, 1.))
   REPRESENTATION_ITEM ('')
);
#550 = EDGE_CURVE ('', #120, #20, #540, .T.);
#560 = ORIENTED_EDGE ('', *, *, #550, .T.);
#570 = ORIENTED_EDGE ('', *, *, #390, .T.);
#580 = CARTESIAN_POINT ('', (-15., 1.83697019872103E-15, -20.57074100506));
#590 = CARTESIAN_POINT ('', (-15., -15., -20.57074100506));
#600 = CARTESIAN_POINT ('', (-2.75545529808154E-15, -15., -20.57074100506));
#610 = CARTESIAN_POINT ('', (15., -15., -20.57074100506));
#620 = CARTESIAN_POINT ('', (15., -3.67394039744206E-15, -20.57074100506));
#630 = (
   BOUNDED_CURVE ()
   B_SPLINE_CURVE (2, (#580, #590, #600, #610, #620), .UNSPECIFIED., .F., .U.)
   B_SPLINE_CURVE_WITH_KNOTS ((3, 2, 3), (3.14159265358979, 4.71238898038469, 6.28318530717959), .UNSPECIFIED.)
   CURVE ()
   GEOMETRIC_REPRESENTATION_ITEM ()
   RATIONAL_B_SPLINE_CURVE ((1., 0.707106781186548, 1., 0.707106781186548, 1.))
   REPRESENTATION_ITEM ('')
);
#640 = EDGE_CURVE ('', #200, #270, #630, .T.);
#650 = ORIENTED_EDGE ('', *, *, #640, .F.);
#660 = ORIENTED_EDGE ('', *, *, #240, .F.);
#670 = EDGE_LOOP ('', (#560, #570, #650, #660));
#680 = FACE_OUTER_BOUND ('', #670, .T.);
#690 = CARTESIAN_POINT ('', (3.5527136788005E-15, -8.88178419700125E-16, -24.3947469728044));
#700 = DIRECTION ('', (0., 0., 1.));
#710 = DIRECTION ('', (-1., 1.8167657456141E-16, 0.));
#720 = AXIS2_PLACEMENT_3D ('', #690, #700, #710);
#730 = CYLINDRICAL_SURFACE ('', #720, 15.);
#740 = ADVANCED_FACE ('', (#680), #730, .T.);
#750 = CARTESIAN_POINT ('', (0., 0., -30.22074100506));
#760 = VERTEX_POINT ('', #750);
#770 = CARTESIAN_POINT ('', (0., 0., -30.22074100506));
#780 = CARTESIAN_POINT ('', (0., 0.652058196518174, -30.22074100506));
#790 = CARTESIAN_POINT ('', (0., 1.61888193797277, -30.1737925694749));
#800 = CARTESIAN_POINT ('', (0., 3.05206166491654, -30.0013846815725));
#810 = CARTESIAN_POINT ('', (0., 4.62949597424573, -29.7186645770743));
#820 = CARTESIAN_POINT ('', (0., 6.51879765291421, -29.1979179770175));
#830 = CARTESIAN_POINT ('', (0., 8.5504430201719, -28.4143505900442));
#840 = CARTESIAN_POINT ('', (0., 10.4318005128016, -27.4974470904862));
#850 = CARTESIAN_POINT ('', (0., 11.9795157097717, -26.5799776716761));
#860 = CARTESIAN_POINT ('', (0., 13.5170884476857, -25.5456328795567));
#870 = CARTESIAN_POINT ('', (0., 14.4164682865216, -24.8659855471889));
#880 = CARTESIAN_POINT ('', (0., 15., -24.3947469728044));
#890 = B_SPLINE_CURVE_WITH_KNOTS ('', 3, (#770, #780, #790, #800, #810, #820, #830, #840, #850, #860, #870, #880), .UNSPECIFIED., .F., .U., (4, 1, 1, 1, 1, 1, 1, 1, 1, 4), (0., 0.11917656471601, 0.176708581397612, 0.263760133532057, 0.411905123174771, 0.534330310065756, 0.661369267463935, 0.794089999528993, 0.862913483821683, 1.), .UNSPECIFIED.);
#900 = EDGE_CURVE ('', #760, #40, #890, .T.);
#910 = ORIENTED_EDGE ('', *, *, #900, .T.);
#920 = ORIENTED_EDGE ('', *, *, #90, .F.);
#930 = ORIENTED_EDGE ('', *, *, #550, .F.);
#940 = ORIENTED_EDGE ('', *, *, #170, .F.);
#950 = ORIENTED_EDGE ('', *, *, #900, .F.);
#960 = EDGE_LOOP ('', (#910, #920, #930, #940, #950));
#970 = FACE_OUTER_BOUND ('', #960, .T.);
#980 = CARTESIAN_POINT ('', (0., 15., -24.3947469728044));
#990 = CARTESIAN_POINT ('', (-15., 15., -24.3947469728044));
#1000 = CARTESIAN_POINT ('', (-15., 1.52958732682563E-14, -24.3947469728044));
#1010 = CARTESIAN_POINT ('', (-15., -15., -24.3947469728044));
#1020 = CARTESIAN_POINT ('', (-2.3153252271524E-14, -15., -24.3947469728044));
#1030 = CARTESIAN_POINT ('', (15., -15., -24.3947469728044));
#1040 = CARTESIAN_POINT ('', (15., -9.69434920198877E-15, -24.3947469728044));
#1050 = CARTESIAN_POINT ('', (15., 15., -24.3947469728044));
#1060 = CARTESIAN_POINT ('', (0., 15., -24.3947469728044));
#1070 = CARTESIAN_POINT ('', (0., 14.4164682865216, -24.8659855471889));
#1080 = CARTESIAN_POINT ('', (-14.4164682865216, 14.4164682865216, -24.8659855471889));
#1090 = CARTESIAN_POINT ('', (-14.4164682865216, 1.52601422560007E-14, -24.8659855471889));
#1100 = CARTESIAN_POINT ('', (-14.4164682865216, -14.4164682865216, -24.8659855471889));
#1110 = CARTESIAN_POINT ('', (-2.30817902470128E-14, -14.4164682865216, -24.8659855471889));
#1120 = CARTESIAN_POINT ('', (14.4164682865216, -14.4164682865216, -24.8659855471889));
#1130 = CARTESIAN_POINT ('', (14.4164682865216, -9.58715616522193E-15, -24.8659855471889));
#1140 = CARTESIAN_POINT ('', (14.4164682865216, 14.4164682865216, -24.8659855471889));
#1150 = CARTESIAN_POINT ('', (0., 14.4164682865216, -24.8659855471889));
#1160 = CARTESIAN_POINT ('', (0., 13.5170884476857, -25.5456328795567));
#1170 = CARTESIAN_POINT ('', (-13.5170884476857, 13.5170884476857, -25.5456328795568));
#1180 = CARTESIAN_POINT ('', (-13.5170884476857, 1.52050711239583E-14, -25.5456328795567));
#1190 = CARTESIAN_POINT ('', (-13.5170884476857, -13.5170884476857, -25.5456328795568));
#1200 = CARTESIAN_POINT ('', (-2.2971647982928E-14, -13.5170884476857, -25.5456328795567));
#1210 = CARTESIAN_POINT ('', (13.5170884476857, -13.5170884476857, -25.5456328795568));
#1220 = CARTESIAN_POINT ('', (13.5170884476857, -9.42194276909472E-15, -25.5456328795567));
#1230 = CARTESIAN_POINT ('', (13.5170884476857, 13.5170884476857, -25.5456328795568));
#1240 = CARTESIAN_POINT ('', (0., 13.5170884476857, -25.5456328795567));
#1250 = CARTESIAN_POINT ('', (0., 11.9795157097717, -26.5799776716761));
#1260 = CARTESIAN_POINT ('', (-11.9795157097717, 11.9795157097717, -26.5799776716761));
#1270 = CARTESIAN_POINT ('', (-11.9795157097717, 1.51109219473611E-14, -26.5799776716761));
#1280 = CARTESIAN_POINT ('', (-11.9795157097717, -11.9795157097717, -26.5799776716761));
#1290 = CARTESIAN_POINT ('', (-2.27833496297337E-14, -11.9795157097717, -26.5799776716761));
#1300 = CARTESIAN_POINT ('', (11.9795157097717, -11.9795157097717, -26.5799776716761));
#1310 = CARTESIAN_POINT ('', (11.9795157097717, -9.13949523930334E-15, -26.5799776716761));
#1320 = CARTESIAN_POINT ('', (11.9795157097717, 11.9795157097717, -26.5799776716761));
#1330 = CARTESIAN_POINT ('', (0., 11.9795157097717, -26.5799776716761));
#1340 = CARTESIAN_POINT ('', (0., 10.4318005128016, -27.4974470904862));
#1350 = CARTESIAN_POINT ('', (-10.4318005128016, 10.4318005128016, -27.4974470904862));
#1360 = CARTESIAN_POINT ('', (-10.4318005128016, 1.50161517242631E-14, -27.4974470904862));
#1370 = CARTESIAN_POINT ('', (-10.4318005128016, -10.4318005128015, -27.4974470904862));
#1380 = CARTESIAN_POINT ('', (-2.25938091835376E-14, -10.4318005128015, -27.4974470904862));
#1390 = CARTESIAN_POINT ('', (10.4318005128015, -10.4318005128016, -27.4974470904862));
#1400 = CARTESIAN_POINT ('', (10.4318005128015, -8.85518457000915E-15, -27.4974470904862));
#1410 = CARTESIAN_POINT ('', (10.4318005128016, 10.4318005128015, -27.4974470904862));
#1420 = CARTESIAN_POINT ('', (0., 10.4318005128016, -27.4974470904862));
#1430 = CARTESIAN_POINT ('', (0., 8.5504430201719, -28.4143505900442));
#1440 = CARTESIAN_POINT ('', (-8.5504430201719, 8.55044302017192, -28.4143505900442));
#1450 = CARTESIAN_POINT ('', (-8.55044302017191, 1.4900951802693E-14, -28.4143505900442));
#1460 = CARTESIAN_POINT ('', (-8.55044302017192, -8.55044302017189, -28.4143505900442));
#1470 = CARTESIAN_POINT ('', (-2.23634093403975E-14, -8.5504430201719, -28.4143505900442));
#1480 = CARTESIAN_POINT ('', (8.55044302017188, -8.55044302017191, -28.4143505900442));
#1490 = CARTESIAN_POINT ('', (8.55044302017189, -8.50958480529903E-15, -28.4143505900442));
#1500 = CARTESIAN_POINT ('', (8.5504430201719, 8.55044302017189, -28.4143505900442));
#1510 = CARTESIAN_POINT ('', (0., 8.5504430201719, -28.4143505900442));
#1520 = CARTESIAN_POINT ('', (0., 6.51879765291421, -29.1979179770175));
#1530 = CARTESIAN_POINT ('', (-6.51879765291421, 6.51879765291422, -29.1979179770175));
#1540 = CARTESIAN_POINT ('', (-6.51879765291422, 1.47765494028923E-14, -29.1979179770175));
#1550 = CARTESIAN_POINT ('', (-6.51879765291423, -6.5187976529142, -29.1979179770175));
#1560 = CARTESIAN_POINT ('', (-2.21146045407961E-14, -6.51879765291421, -29.1979179770175));
#1570 = CARTESIAN_POINT ('', (6.51879765291419, -6.51879765291422, -29.1979179770175));
#1580 = CARTESIAN_POINT ('', (6.5187976529142, -8.13637760589683E-15, -29.1979179770175));
#1590 = CARTESIAN_POINT ('', (6.51879765291421, 6.5187976529142, -29.1979179770175));
#1600 = CARTESIAN_POINT ('', (0., 6.51879765291421, -29.1979179770175));
#1610 = CARTESIAN_POINT ('', (0., 4.62949597424573, -29.7186645770743));
#1620 = CARTESIAN_POINT ('', (-4.62949597424573, 4.62949597424574, -29.7186645770743));
#1630 = CARTESIAN_POINT ('', (-4.62949597424574, 1.46608630402221E-14, -29.7186645770743));
#1640 = CARTESIAN_POINT ('', (-4.62949597424575, -4.62949597424571, -29.7186645770743));
#1650 = CARTESIAN_POINT ('', (-2.18832318154556E-14, -4.62949597424573, -29.7186645770743));
#1660 = CARTESIAN_POINT ('', (4.62949597424571, -4.62949597424574, -29.7186645770743));
#1670 = CARTESIAN_POINT ('', (4.62949597424572, -7.78931851788607E-15, -29.7186645770743));
#1680 = CARTESIAN_POINT ('', (4.62949597424573, 4.62949597424572, -29.7186645770743));
#1690 = CARTESIAN_POINT ('', (0., 4.62949597424573, -29.7186645770743));
#1700 = CARTESIAN_POINT ('', (0., 3.05206166491654, -30.0013846815725));
#1710 = CARTESIAN_POINT ('', (-3.05206166491653, 3.05206166491655, -30.0013846815725));
#1720 = CARTESIAN_POINT ('', (-3.05206166491654, 1.45642730463328E-14, -30.0013846815725));
#1730 = CARTESIAN_POINT ('', (-3.05206166491655, -3.05206166491652, -30.0013846815725));
#1740 = CARTESIAN_POINT ('', (-2.1690051827677E-14, -3.05206166491653, -30.0013846815725));
#1750 = CARTESIAN_POINT ('', (3.05206166491651, -3.05206166491654, -30.0013846815725));
#1760 = CARTESIAN_POINT ('', (3.05206166491652, -7.49954853621828E-15, -30.0013846815725));
#1770 = CARTESIAN_POINT ('', (3.05206166491653, 3.05206166491653, -30.0013846815725));
#1780 = CARTESIAN_POINT ('', (0., 3.05206166491654, -30.0013846815725));
#1790 = CARTESIAN_POINT ('', (0., 1.61888193797277, -30.1737925694749));
#1800 = CARTESIAN_POINT ('', (-1.61888193797276, 1.61888193797278, -30.1737925694749));
#1810 = CARTESIAN_POINT ('', (-1.61888193797277, 1.44765160980726E-14, -30.1737925694749));
#1820 = CARTESIAN_POINT ('', (-1.61888193797278, -1.61888193797275, -30.1737925694749));
#1830 = CARTESIAN_POINT ('', (-2.15145379311566E-14, -1.61888193797276, -30.1737925694749));
#1840 = CARTESIAN_POINT ('', (1.61888193797274, -1.61888193797277, -30.1737925694749));
#1850 = CARTESIAN_POINT ('', (1.61888193797275, -7.2362776914376E-15, -30.1737925694749));
#1860 = CARTESIAN_POINT ('', (1.61888193797276, 1.61888193797276, -30.1737925694749));
#1870 = CARTESIAN_POINT ('', (0., 1.61888193797277, -30.1737925694749));
#1880 = CARTESIAN_POINT ('', (0., 0.652058196518174, -30.22074100506));
#1890 = CARTESIAN_POINT ('', (-0.65205819651817, 0.652058196518184, -30.22074100506));
#1900 = CARTESIAN_POINT ('', (-0.65205819651818, 1.4417315218057E-14, -30.22074100506));
#1910 = CARTESIAN_POINT ('', (-0.652058196518191, -0.652058196518155, -30.22074100506));
#1920 = CARTESIAN_POINT ('', (-2.13961361711254E-14, -0.652058196518166, -30.22074100506));
#1930 = CARTESIAN_POINT ('', (0.652058196518148, -0.652058196518177, -30.22074100506));
#1940 = CARTESIAN_POINT ('', (0.652058196518159, -7.05867505139079E-15, -30.22074100506));
#1950 = CARTESIAN_POINT ('', (0.65205819651817, 0.652058196518163, -30.22074100506));
#1960 = CARTESIAN_POINT ('', (0., 0.652058196518174, -30.22074100506));
#1970 = CARTESIAN_POINT ('', (0., 0., -30.22074100506));
#1980 = CARTESIAN_POINT ('', (0., 0., -30.22074100506));
#1990 = CARTESIAN_POINT ('', (0., 0., -30.22074100506));
#2000 = CARTESIAN_POINT ('', (0., 0., -30.22074100506));
#2010 = CARTESIAN_POINT ('', (0., 0., -30.22074100506));
#2020 = CARTESIAN_POINT ('', (0., 0., -30.22074100506));
#2030 = CARTESIAN_POINT ('', (0., 0., -30.22074100506));
#2040 = CARTESIAN_POINT ('', (0., 0., -30.22074100506));
#2050 = CARTESIAN_POINT ('', (0., 0., -30.22074100506));
#2060 = (
   BOUNDED_SURFACE ()
   B_SPLINE_SURFACE (3, 2, ((#980, #990, #1000, #1010, #1020, #1030, #1040, #1050, #1060), (#1070, #1080, #1090, #1100, #1110, #1120, #1130, #1140, #1150), (#1160, #1170, #1180, #1190, #1200, #1210, #1220, #1230, #1240), (#1250, #1260, #1270, #1280, #1290, #1300, #1310, #1320, #1330), (#1340, #1350, #1360, #1370, #1380, #1390, #1400, #1410, #1420), (#1430, #1440, #1450, #1460, #1470, #1480, #1490, #1500, #1510), (#1520, #1530, #1540, #1550, #1560, #1570, #1580, #1590, #1600), (#1610, #1620, #1630, #1640, #1650, #1660, #1670, #1680, #1690), (#1700, #1710, #1720, #1730, #1740, #1750, #1760, #1770, #1780), (#1790, #1800, #1810, #1820, #1830, #1840, #1850, #1860, #1870), (#1880, #1890, #1900, #1910, #1920, #1930, #1940, #1950, #1960), (#1970, #1980, #1990, #2000, #2010, #2020, #2030, #2040, #2050)), .UNSPECIFIED., .F., .T., .U.)
   B_SPLINE_SURFACE_WITH_KNOTS ((4, 1, 1, 1, 1, 1, 1, 1, 1, 4), (3, 2, 2, 2, 3), (0., 0.137086516178317, 0.205910000471007, 0.338630732536065, 0.465669689934244, 0.588094876825229, 0.736239866467943, 0.823291418602388, 0.88082343528399, 1.), (0., 90., 180., 270., 360.), .UNSPECIFIED.)
   SURFACE ()
   GEOMETRIC_REPRESENTATION_ITEM ()
   RATIONAL_B_SPLINE_SURFACE (((1., 0.707106781186548, 1., 0.707106781186548, 1., 0.707106781186548, 1., 0.707106781186548, 1.), (1., 0.707106781186548, 1., 0.707106781186548, 1., 0.707106781186548, 1., 0.707106781186548, 1.), (1., 0.707106781186548, 1., 0.707106781186548, 1., 0.707106781186548, 1., 0.707106781186548, 1.), (1., 0.707106781186548, 1., 0.707106781186548, 1., 0.707106781186548, 1., 0.707106781186548, 1.), (1., 0.707106781186548, 1., 0.707106781186548, 1., 0.707106781186548, 1., 0.707106781186548, 1.), (1., 0.707106781186548, 1., 0.707106781186548, 1., 0.707106781186548, 1., 0.707106781186548, 1.), (1., 0.707106781186548, 1., 0.707106781186548, 1., 0.707106781186548, 1., 0.707106781186548, 1.), (1., 0.707106781186548, 1., 0.707106781186548, 1., 0.707106781186548, 1., 0.707106781186548, 1.), (1., 0.707106781186548, 1., 0.707106781186548, 1., 0.707106781186548, 1., 0.707106781186548, 1.), (1., 0.707106781186548, 1., 0.707106781186548, 1., 0.707106781186548, 1., 0.707106781186548, 1.), (1., 0.707106781186548, 1., 0.707106781186548, 1., 0.707106781186548, 1., 0.707106781186548, 1.), (1., 0.707106781186548, 1., 0.707106781186548, 1., 0.707106781186548, 1., 0.707106781186548, 1.)))
   REPRESENTATION_ITEM ('')
);
#2070 = ADVANCED_FACE ('', (#970), #2060, .T.);
#2080 = ORIENTED_EDGE ('', *, *, #340, .T.);
#2090 = ORIENTED_EDGE ('', *, *, #640, .T.);
#2100 = EDGE_LOOP ('', (#2080, #2090));
#2110 = FACE_OUTER_BOUND ('', #2100, .T.);
#2120 = CARTESIAN_POINT ('', (0., 30.804, -20.57074100506));
#2130 = DIRECTION ('', (0., 0., 1.));
#2140 = DIRECTION ('', (-0.707106781186548, -0.707106781186548, 0.));
#2150 = AXIS2_PLACEMENT_3D ('', #2120, #2130, #2140);
#2160 = PLANE ('', #2150);
#2170 = ADVANCED_FACE ('', (#2110), #2160, .T.);
#2180 = CLOSED_SHELL ('', (#480, #740, #2070, #2170));
#2190 = MANIFOLD_SOLID_BREP ('', #2180);
#2200 = (
   LENGTH_UNIT ()
   NAMED_UNIT (*)
   SI_UNIT (.MILLI., .METRE.)
);
#2210 = (
   NAMED_UNIT (*)
   SI_UNIT ($, .STERADIAN.)
   SOLID_ANGLE_UNIT ()
);
#2220 = (
   NAMED_UNIT (*)
   SI_UNIT ($, .RADIAN.)
   PLANE_ANGLE_UNIT ()
);
#2230 = UNCERTAINTY_MEASURE_WITH_UNIT (LENGTH_MEASURE(0.0001), #2200, 'DISTANCE_ACCURACY_VALUE', '');
#2240 = (
   GEOMETRIC_REPRESENTATION_CONTEXT (3)
   GLOBAL_UNCERTAINTY_ASSIGNED_CONTEXT ((#2230))
   GLOBAL_UNIT_ASSIGNED_CONTEXT ((#2200, #2210, #2220))
   REPRESENTATION_CONTEXT ('', '3D')
);
#2250 = ADVANCED_BREP_SHAPE_REPRESENTATION ('', (#2190), #2240);
#2260 = APPLICATION_CONTEXT ('configuration controlled 3D designs of mechanical parts and assemblies');
#2270 = APPLICATION_PROTOCOL_DEFINITION ('International Standard', 'config_control_design', 1997, #2260);
#2280 = MECHANICAL_CONTEXT ('', #2260, 'mechanical');
#2290 = PRODUCT ('NONE', '', '', (#2280));
#2300 = PERSON_AND_ORGANIZATION_ROLE ('design_owner');
#2310 = PERSON ('', '', $, $, $, $);
#2320 = ORGANIZATION ($, '', '');
#2330 = PERSON_AND_ORGANIZATION (#2310, #2320);
#2340 = CC_DESIGN_PERSON_AND_ORGANIZATION_ASSIGNMENT (#2330, #2300, (#2290));
#2350 = PRODUCT_RELATED_PRODUCT_CATEGORY ('detail', $, (#2290));
#2360 = PRODUCT_DEFINITION_FORMATION_WITH_SPECIFIED_SOURCE ('', '', #2290, .NOT_KNOWN.);
#2370 = APPROVAL_STATUS ('approved');
#2380 = APPROVAL (#2370, '');
#2390 = CALENDAR_DATE (2016, 24, 5);
#2400 = COORDINATED_UNIVERSAL_TIME_OFFSET (0, $, .AHEAD.);
#2410 = LOCAL_TIME (14, 18, 34., #2400);
#2420 = DATE_AND_TIME (#2390, #2410);
#2430 = APPROVAL_DATE_TIME (#2420, #2380);
#2440 = APPROVAL_ROLE ('');
#2450 = PERSON ('', '', $, $, $, $);
#2460 = ORGANIZATION ($, '', '');
#2470 = PERSON_AND_ORGANIZATION (#2450, #2460);
#2480 = APPROVAL_PERSON_ORGANIZATION (#2470, #2380, #2440);
#2490 = CC_DESIGN_APPROVAL (#2380, (#2360));
#2500 = PERSON_AND_ORGANIZATION_ROLE ('creator');
#2510 = PERSON ('', '', $, $, $, $);
#2520 = ORGANIZATION ($, '', '');
#2530 = PERSON_AND_ORGANIZATION (#2510, #2520);
#2540 = CC_DESIGN_PERSON_AND_ORGANIZATION_ASSIGNMENT (#2530, #2500, (#2360));
#2550 = PERSON_AND_ORGANIZATION_ROLE ('part_supplier');
#2560 = PERSON ('', '', $, $, $, $);
#2570 = ORGANIZATION ($, '', '');
#2580 = PERSON_AND_ORGANIZATION (#2560, #2570);
#2590 = CC_DESIGN_PERSON_AND_ORGANIZATION_ASSIGNMENT (#2580, #2550, (#2360));
#2600 = SECURITY_CLASSIFICATION_LEVEL ('unclassified');
#2610 = SECURITY_CLASSIFICATION ('', '', #2600);
#2620 = APPROVAL_STATUS ('approved');
#2630 = APPROVAL (#2620, '');
#2640 = CALENDAR_DATE (2016, 24, 5);
#2650 = COORDINATED_UNIVERSAL_TIME_OFFSET (0, $, .AHEAD.);
#2660 = LOCAL_TIME (14, 18, 34., #2650);
#2670 = DATE_AND_TIME (#2640, #2660);
#2680 = APPROVAL_DATE_TIME (#2670, #2630);
#2690 = APPROVAL_ROLE ('');
#2700 = PERSON ('', '', $, $, $, $);
#2710 = ORGANIZATION ($, '', '');
#2720 = PERSON_AND_ORGANIZATION (#2700, #2710);
#2730 = APPROVAL_PERSON_ORGANIZATION (#2720, #2630, #2690);
#2740 = CC_DESIGN_APPROVAL (#2630, (#2610));
#2750 = DATE_TIME_ROLE ('classification_date');
#2760 = CALENDAR_DATE (2016, 24, 5);
#2770 = COORDINATED_UNIVERSAL_TIME_OFFSET (0, $, .AHEAD.);
#2780 = LOCAL_TIME (14, 18, 34., #2770);
#2790 = DATE_AND_TIME (#2760, #2780);
#2800 = CC_DESIGN_DATE_AND_TIME_ASSIGNMENT (#2790, #2750, (#2610));
#2810 = PERSON_AND_ORGANIZATION_ROLE ('classification_officer');
#2820 = PERSON ('', '', $, $, $, $);
#2830 = ORGANIZATION ($, '', '');
#2840 = PERSON_AND_ORGANIZATION (#2820, #2830);
#2850 = CC_DESIGN_PERSON_AND_ORGANIZATION_ASSIGNMENT (#2840, #2810, (#2610));
#2860 = CC_DESIGN_SECURITY_CLASSIFICATION (#2610, (#2360));
#2870 = DESIGN_CONTEXT ('', #2260, 'design');
#2880 = PRODUCT_DEFINITION ('', '', #2360, #2870);
#2890 = APPROVAL_STATUS ('approved');
#2900 = APPROVAL (#2890, '');
#2910 = CALENDAR_DATE (2016, 24, 5);
#2920 = COORDINATED_UNIVERSAL_TIME_OFFSET (0, $, .AHEAD.);
#2930 = LOCAL_TIME (14, 18, 34., #2920);
#2940 = DATE_AND_TIME (#2910, #2930);
#2950 = APPROVAL_DATE_TIME (#2940, #2900);
#2960 = APPROVAL_ROLE ('');
#2970 = PERSON ('', '', $, $, $, $);
#2980 = ORGANIZATION ($, '', '');
#2990 = PERSON_AND_ORGANIZATION (#2970, #2980);
#3000 = APPROVAL_PERSON_ORGANIZATION (#2990, #2900, #2960);
#3010 = CC_DESIGN_APPROVAL (#2900, (#2880));
#3020 = DATE_TIME_ROLE ('creation_date');
#3030 = CALENDAR_DATE (2016, 24, 5);
#3040 = COORDINATED_UNIVERSAL_TIME_OFFSET (0, $, .AHEAD.);
#3050 = LOCAL_TIME (14, 18, 34., #3040);
#3060 = DATE_AND_TIME (#3030, #3050);
#3070 = CC_DESIGN_DATE_AND_TIME_ASSIGNMENT (#3060, #3020, (#2880));
#3080 = PERSON_AND_ORGANIZATION_ROLE ('creator');
#3090 = PERSON ('', '', $, $, $, $);
#3100 = ORGANIZATION ($, '', '');
#3110 = PERSON_AND_ORGANIZATION (#3090, #3100);
#3120 = CC_DESIGN_PERSON_AND_ORGANIZATION_ASSIGNMENT (#3110, #3080, (#2880));
#3130 = PRODUCT_DEFINITION_SHAPE ('', '', #2880);
#3140 = SHAPE_DEFINITION_REPRESENTATION (#3130, #2250);
#3150 = PRESENTATION_LAYER_ASSIGNMENT ('Level 0', 'Level 0', (#2190));
ENDSEC;
END-ISO-10303-21;
