ISO-10303-21;
HEADER;
FILE_DESCRIPTION ((), '1');
FILE_NAME ('\\\\fileserver\\Daten\\Applikationen\\Optikdesign\\SPA-Design\\aktuelle SPA-Designs\\Linsenkataloge - 2016-Juni\\Zemax\\AHL\\AHL10-08.STP', '2016-05-24T14:17:06', ('Unknown'), ('Unknown'), 'HarmonyWare STEP v2.0.1', 'HarmonyWare Translators', '');
FILE_SCHEMA (('CONFIG_CONTROL_DESIGN'));
ENDSEC;

DATA;
#10 = CARTESIAN_POINT ('', (5., 0., -7.57223405026102));
#20 = VERTEX_POINT ('', #10);
#30 = CARTESIAN_POINT ('', (3.06161699786838E-16, 5., -7.57223405026102));
#40 = VERTEX_POINT ('', #30);
#50 = CARTESIAN_POINT ('', (5., 0., -7.57223405026102));
#60 = CARTESIAN_POINT ('', (5., 5., -7.57223405026102));
#70 = CARTESIAN_POINT ('', (3.06161699786838E-16, 5., -7.57223405026102));
#80 = (
   BOUNDED_CURVE ()
   B_SPLINE_CURVE (2, (#50, #60, #70), .UNSPECIFIED., .F., .U.)
   B_SPLINE_CURVE_WITH_KNOTS ((3, 3), (0., 1.5707963267949), .UNSPECIFIED.)
   CURVE ()
   GEOMETRIC_REPRESENTATION_ITEM ()
   RATIONAL_B_SPLINE_CURVE ((1., 0.707106781186548, 1.))
   REPRESENTATION_ITEM ('')
);
#90 = EDGE_CURVE ('', #20, #40, #80, .T.);
#100 = ORIENTED_EDGE ('', *, *, #90, .T.);
#110 = CARTESIAN_POINT ('', (-5., 6.12323399573677E-16, -7.57223405026102));
#120 = VERTEX_POINT ('', #110);
#130 = CARTESIAN_POINT ('', (3.06161699786838E-16, 5., -7.57223405026102));
#140 = CARTESIAN_POINT ('', (-5., 5., -7.57223405026102));
#150 = CARTESIAN_POINT ('', (-5., 6.12323399573677E-16, -7.57223405026102));
#160 = (
   BOUNDED_CURVE ()
   B_SPLINE_CURVE (2, (#130, #140, #150), .UNSPECIFIED., .F., .U.)
   B_SPLINE_CURVE_WITH_KNOTS ((3, 3), (1.5707963267949, 3.14159265358979), .UNSPECIFIED.)
   CURVE ()
   GEOMETRIC_REPRESENTATION_ITEM ()
   RATIONAL_B_SPLINE_CURVE ((1., 0.707106781186548, 1.))
   REPRESENTATION_ITEM ('')
);
#170 = EDGE_CURVE ('', #40, #120, #160, .T.);
#180 = ORIENTED_EDGE ('', *, *, #170, .T.);
#190 = CARTESIAN_POINT ('', (-5., 6.12323399573677E-16, -6.002067435971));
#200 = VERTEX_POINT ('', #190);
#210 = CARTESIAN_POINT ('', (-5., 6.12323399573677E-16, -7.57223405026102));
#220 = CARTESIAN_POINT ('', (-5., 6.12323399573677E-16, -6.002067435971));
#230 = B_SPLINE_CURVE_WITH_KNOTS ('', 1, (#210, #220), .UNSPECIFIED., .F., .U., (2, 2), (0., 1.), .UNSPECIFIED.);
#240 = EDGE_CURVE ('', #120, #200, #230, .T.);
#250 = ORIENTED_EDGE ('', *, *, #240, .T.);
#260 = CARTESIAN_POINT ('', (5., 0., -6.002067435971));
#270 = VERTEX_POINT ('', #260);
#280 = CARTESIAN_POINT ('', (5., 0., -6.002067435971));
#290 = CARTESIAN_POINT ('', (5., 5., -6.002067435971));
#300 = CARTESIAN_POINT ('', (3.06161699786838E-16, 5., -6.002067435971));
#310 = CARTESIAN_POINT ('', (-5., 5., -6.002067435971));
#320 = CARTESIAN_POINT ('', (-5., 6.12323399573677E-16, -6.002067435971));
#330 = (
   BOUNDED_CURVE ()
   B_SPLINE_CURVE (2, (#280, #290, #300, #310, #320), .UNSPECIFIED., .F., .U.)
   B_SPLINE_CURVE_WITH_KNOTS ((3, 2, 3), (0., 1.5707963267949, 3.14159265358979), .UNSPECIFIED.)
   CURVE ()
   GEOMETRIC_REPRESENTATION_ITEM ()
   RATIONAL_B_SPLINE_CURVE ((1., 0.707106781186548, 1., 0.707106781186548, 1.))
   REPRESENTATION_ITEM ('')
);
#340 = EDGE_CURVE ('', #270, #200, #330, .T.);
#350 = ORIENTED_EDGE ('', *, *, #340, .F.);
#360 = CARTESIAN_POINT ('', (5., 0., -7.57223405026102));
#370 = CARTESIAN_POINT ('', (5., 0., -6.002067435971));
#380 = B_SPLINE_CURVE_WITH_KNOTS ('', 1, (#360, #370), .UNSPECIFIED., .F., .U., (2, 2), (0., 1.), .UNSPECIFIED.);
#390 = EDGE_CURVE ('', #20, #270, #380, .T.);
#400 = ORIENTED_EDGE ('', *, *, #390, .F.);
#410 = EDGE_LOOP ('', (#100, #180, #250, #350, #400));
#420 = FACE_OUTER_BOUND ('', #410, .T.);
#430 = CARTESIAN_POINT ('', (-4.44089209850063E-16, -1.33226762955019E-15, -7.57223405026102));
#440 = DIRECTION ('', (-1.77635683940025E-16, -4.73316543132607E-32, 1.));
#450 = DIRECTION ('', (1., 2.66453525910038E-16, 1.77635683940025E-16));
#460 = AXIS2_PLACEMENT_3D ('', #430, #440, #450);
#470 = CYLINDRICAL_SURFACE ('', #460, 5.);
#480 = ADVANCED_FACE ('', (#420), #470, .T.);
#490 = CARTESIAN_POINT ('', (-5., 6.12323399573677E-16, -7.57223405026102));
#500 = CARTESIAN_POINT ('', (-5., -5., -7.57223405026102));
#510 = CARTESIAN_POINT ('', (-9.18485099360515E-16, -5., -7.57223405026102));
#520 = CARTESIAN_POINT ('', (5., -5., -7.57223405026102));
#530 = CARTESIAN_POINT ('', (5., -1.22464679914735E-15, -7.57223405026102));
#540 = (
   BOUNDED_CURVE ()
   B_SPLINE_CURVE (2, (#490, #500, #510, #520, #530), .UNSPECIFIED., .F., .U.)
   B_SPLINE_CURVE_WITH_KNOTS ((3, 2, 3), (3.14159265358979, 4.71238898038469, 6.28318530717959), .UNSPECIFIED.)
   CURVE ()
   GEOMETRIC_REPRESENTATION_ITEM ()
   RATIONAL_B_SPLINE_CURVE ((1., 0.707106781186548, 1., 0.707106781186548, 1.))
   REPRESENTATION_ITEM ('')
);
#550 = EDGE_CURVE ('', #120, #20, #540, .T.);
#560 = ORIENTED_EDGE ('', *, *, #550, .T.);
#570 = ORIENTED_EDGE ('', *, *, #390, .T.);
#580 = CARTESIAN_POINT ('', (-5., 6.12323399573677E-16, -6.002067435971));
#590 = CARTESIAN_POINT ('', (-5., -5., -6.002067435971));
#600 = CARTESIAN_POINT ('', (-9.18485099360515E-16, -5., -6.002067435971));
#610 = CARTESIAN_POINT ('', (5., -5., -6.002067435971));
#620 = CARTESIAN_POINT ('', (5., -1.22464679914735E-15, -6.002067435971));
#630 = (
   BOUNDED_CURVE ()
   B_SPLINE_CURVE (2, (#580, #590, #600, #610, #620), .UNSPECIFIED., .F., .U.)
   B_SPLINE_CURVE_WITH_KNOTS ((3, 2, 3), (3.14159265358979, 4.71238898038469, 6.28318530717959), .UNSPECIFIED.)
   CURVE ()
   GEOMETRIC_REPRESENTATION_ITEM ()
   RATIONAL_B_SPLINE_CURVE ((1., 0.707106781186548, 1., 0.707106781186548, 1.))
   REPRESENTATION_ITEM ('')
);
#640 = EDGE_CURVE ('', #200, #270, #630, .T.);
#650 = ORIENTED_EDGE ('', *, *, #640, .F.);
#660 = ORIENTED_EDGE ('', *, *, #240, .F.);
#670 = EDGE_LOOP ('', (#560, #570, #650, #660));
#680 = FACE_OUTER_BOUND ('', #670, .T.);
#690 = CARTESIAN_POINT ('', (-4.44089209850063E-16, -8.88178419700125E-16, -7.57223405026102));
#700 = DIRECTION ('', (1.77635683940025E-16, -5.33085333839907E-32, 1.));
#710 = DIRECTION ('', (-1., 3.0010036385476E-16, 1.77635683940025E-16));
#720 = AXIS2_PLACEMENT_3D ('', #690, #700, #710);
#730 = CYLINDRICAL_SURFACE ('', #720, 5.);
#740 = ADVANCED_FACE ('', (#680), #730, .T.);
#750 = CARTESIAN_POINT ('', (0., 0., -9.702067435971));
#760 = VERTEX_POINT ('', #750);
#770 = CARTESIAN_POINT ('', (0., 0., -9.702067435971));
#780 = CARTESIAN_POINT ('', (0., 0.32247055704127, -9.702067435971));
#790 = CARTESIAN_POINT ('', (0., 0.857730342143481, -9.66010701905218));
#800 = CARTESIAN_POINT ('', (0., 1.59648167300445, -9.50664445868679));
#810 = CARTESIAN_POINT ('', (0., 2.22443247483559, -9.31039763205718));
#820 = CARTESIAN_POINT ('', (0., 2.8521894051037, -9.04621345910842));
#830 = CARTESIAN_POINT ('', (0., 3.47966019395722, -8.7113359830684));
#840 = CARTESIAN_POINT ('', (0., 4.21257092549756, -8.23362242136779));
#850 = CARTESIAN_POINT ('', (9.86076131526265E-32, 4.7096432536579, -7.83191975414759));
#860 = CARTESIAN_POINT ('', (0., 5., -7.57223405026102));
#870 = B_SPLINE_CURVE_WITH_KNOTS ('', 3, (#770, #780, #790, #800, #810, #820, #830, #840, #850, #860), .UNSPECIFIED., .F., .U., (4, 1, 1, 1, 1, 1, 1, 4), (0., 0.173963093597758, 0.288783984328417, 0.406546338507623, 0.52846619340121, 0.655804301723926, 0.789853386340983, 1.), .UNSPECIFIED.);
#880 = EDGE_CURVE ('', #760, #40, #870, .T.);
#890 = ORIENTED_EDGE ('', *, *, #880, .T.);
#900 = ORIENTED_EDGE ('', *, *, #90, .F.);
#910 = ORIENTED_EDGE ('', *, *, #550, .F.);
#920 = ORIENTED_EDGE ('', *, *, #170, .F.);
#930 = ORIENTED_EDGE ('', *, *, #880, .F.);
#940 = EDGE_LOOP ('', (#890, #900, #910, #920, #930));
#950 = FACE_OUTER_BOUND ('', #940, .T.);
#960 = CARTESIAN_POINT ('', (0., 5., -7.57223405026102));
#970 = CARTESIAN_POINT ('', (-5., 5., -7.57223405026102));
#980 = CARTESIAN_POINT ('', (-5., 2.0963963269949E-15, -7.57223405026102));
#990 = CARTESIAN_POINT ('', (-5., -5., -7.57223405026102));
#1000 = CARTESIAN_POINT ('', (-1.94459102912386E-15, -5., -7.57223405026102));
#1010 = CARTESIAN_POINT ('', (5., -5., -7.57223405026102));
#1020 = CARTESIAN_POINT ('', (5., -4.60518101702638E-16, -7.57223405026102));
#1030 = CARTESIAN_POINT ('', (5., 5., -7.57223405026102));
#1040 = CARTESIAN_POINT ('', (0., 5., -7.57223405026102));
#1050 = CARTESIAN_POINT ('', (9.86076131526265E-32, 4.7096432536579, -7.83191975414759));
#1060 = CARTESIAN_POINT ('', (-4.7096432536579, 4.7096432536579, -7.83191975414759));
#1070 = CARTESIAN_POINT ('', (-4.7096432536579, 2.07861710399397E-15, -7.83191975414759));
#1080 = CARTESIAN_POINT ('', (-4.7096432536579, -4.7096432536579, -7.83191975414759));
#1090 = CARTESIAN_POINT ('', (-1.90903258312199E-15, -4.7096432536579, -7.83191975414759));
#1100 = CARTESIAN_POINT ('', (4.70964325365789, -4.7096432536579, -7.83191975414759));
#1110 = CARTESIAN_POINT ('', (4.7096432536579, -4.07180432699833E-16, -7.83191975414759));
#1120 = CARTESIAN_POINT ('', (4.7096432536579, 4.7096432536579, -7.83191975414759));
#1130 = CARTESIAN_POINT ('', (9.86076131526265E-32, 4.7096432536579, -7.83191975414759));
#1140 = CARTESIAN_POINT ('', (0., 4.21257092549756, -8.23362242136779));
#1150 = CARTESIAN_POINT ('', (-4.21257092549756, 4.21257092549756, -8.23362242136779));
#1160 = CARTESIAN_POINT ('', (-4.21257092549756, 2.04818020221265E-15, -8.23362242136779));
#1170 = CARTESIAN_POINT ('', (-4.21257092549756, -4.21257092549756, -8.23362242136779));
#1180 = CARTESIAN_POINT ('', (-1.84815877955937E-15, -4.21257092549756, -8.23362242136779));
#1190 = CARTESIAN_POINT ('', (4.21257092549756, -4.21257092549756, -8.23362242136779));
#1200 = CARTESIAN_POINT ('', (4.21257092549756, -3.15869727355891E-16, -8.23362242136779));
#1210 = CARTESIAN_POINT ('', (4.21257092549756, 4.21257092549756, -8.23362242136779));
#1220 = CARTESIAN_POINT ('', (0., 4.21257092549756, -8.23362242136779));
#1230 = CARTESIAN_POINT ('', (0., 3.47966019395722, -8.7113359830684));
#1240 = CARTESIAN_POINT ('', (-3.47966019395722, 3.47966019395722, -8.7113359830684));
#1250 = CARTESIAN_POINT ('', (-3.47966019395722, 2.00330236314057E-15, -8.7113359830684));
#1260 = CARTESIAN_POINT ('', (-3.47966019395722, -3.47966019395722, -8.7113359830684));
#1270 = CARTESIAN_POINT ('', (-1.7584031014152E-15, -3.47966019395722, -8.7113359830684));
#1280 = CARTESIAN_POINT ('', (3.47966019395722, -3.47966019395722, -8.7113359830684));
#1290 = CARTESIAN_POINT ('', (3.47966019395722, -1.81236210139648E-16, -8.7113359830684));
#1300 = CARTESIAN_POINT ('', (3.47966019395722, 3.47966019395722, -8.7113359830684));
#1310 = CARTESIAN_POINT ('', (0., 3.47966019395722, -8.7113359830684));
#1320 = CARTESIAN_POINT ('', (0., 2.8521894051037, -9.04621345910842));
#1330 = CARTESIAN_POINT ('', (-2.8521894051037, 2.8521894051037, -9.04621345910842));
#1340 = CARTESIAN_POINT ('', (-2.8521894051037, 1.96488085848418E-15, -9.04621345910842));
#1350 = CARTESIAN_POINT ('', (-2.8521894051037, -2.85218940510369, -9.04621345910842));
#1360 = CARTESIAN_POINT ('', (-1.68156009210241E-15, -2.8521894051037, -9.04621345910842));
#1370 = CARTESIAN_POINT ('', (2.85218940510369, -2.8521894051037, -9.04621345910842));
#1380 = CARTESIAN_POINT ('', (2.8521894051037, -6.59716961704583E-17, -9.04621345910842));
#1390 = CARTESIAN_POINT ('', (2.8521894051037, 2.8521894051037, -9.04621345910842));
#1400 = CARTESIAN_POINT ('', (0., 2.8521894051037, -9.04621345910842));
#1410 = CARTESIAN_POINT ('', (0., 2.22443247483559, -9.31039763205718));
#1420 = CARTESIAN_POINT ('', (-2.22443247483559, 2.22443247483559, -9.31039763205718));
#1430 = CARTESIAN_POINT ('', (-2.22443247483559, 1.92644183271941E-15, -9.31039763205718));
#1440 = CARTESIAN_POINT ('', (-2.22443247483559, -2.22443247483559, -9.31039763205718));
#1450 = CARTESIAN_POINT ('', (-1.60468204057287E-15, -2.22443247483559, -9.31039763205718));
#1460 = CARTESIAN_POINT ('', (2.22443247483559, -2.22443247483559, -9.31039763205718));
#1470 = CARTESIAN_POINT ('', (2.22443247483559, 4.9345381123852E-17, -9.31039763205718));
#1480 = CARTESIAN_POINT ('', (2.22443247483559, 2.22443247483559, -9.31039763205718));
#1490 = CARTESIAN_POINT ('', (0., 2.22443247483559, -9.31039763205718));
#1500 = CARTESIAN_POINT ('', (0., 1.59648167300445, -9.50664445868679));
#1510 = CARTESIAN_POINT ('', (-1.59648167300445, 1.59648167300445, -9.50664445868679));
#1520 = CARTESIAN_POINT ('', (-1.59648167300445, 1.88799093574518E-15, -9.50664445868679));
#1530 = CARTESIAN_POINT ('', (-1.59648167300445, -1.59648167300444, -9.50664445868679));
#1540 = CARTESIAN_POINT ('', (-1.52778024662442E-15, -1.59648167300444, -9.50664445868679));
#1550 = CARTESIAN_POINT ('', (1.59648167300444, -1.59648167300444, -9.50664445868679));
#1560 = CARTESIAN_POINT ('', (1.59648167300444, 1.64698072046531E-16, -9.50664445868679));
#1570 = CARTESIAN_POINT ('', (1.59648167300445, 1.59648167300445, -9.50664445868679));
#1580 = CARTESIAN_POINT ('', (0., 1.59648167300445, -9.50664445868679));
#1590 = CARTESIAN_POINT ('', (0., 0.857730342143481, -9.66010701905218));
#1600 = CARTESIAN_POINT ('', (-0.85773034214348, 0.857730342143482, -9.66010701905218));
#1610 = CARTESIAN_POINT ('', (-0.857730342143481, 1.84275546310994E-15, -9.66010701905218));
#1620 = CARTESIAN_POINT ('', (-0.857730342143481, -0.857730342143478, -9.66010701905218));
#1630 = CARTESIAN_POINT ('', (-1.43730930135395E-15, -0.857730342143479, -9.66010701905218));
#1640 = CARTESIAN_POINT ('', (0.857730342143479, -0.85773034214348, -9.66010701905218));
#1650 = CARTESIAN_POINT ('', (0.857730342143479, 3.0040448995224E-16, -9.66010701905218));
#1660 = CARTESIAN_POINT ('', (0.85773034214348, 0.85773034214348, -9.66010701905218));
#1670 = CARTESIAN_POINT ('', (0., 0.857730342143481, -9.66010701905218));
#1680 = CARTESIAN_POINT ('', (0., 0.32247055704127, -9.702067435971));
#1690 = CARTESIAN_POINT ('', (-0.322470557041269, 0.32247055704127, -9.702067435971));
#1700 = CARTESIAN_POINT ('', (-0.322470557041269, 1.80998025398306E-15, -9.702067435971));
#1710 = CARTESIAN_POINT ('', (-0.32247055704127, -0.322470557041267, -9.702067435971));
#1720 = CARTESIAN_POINT ('', (-1.37175888310017E-15, -0.322470557041267, -9.702067435971));
#1730 = CARTESIAN_POINT ('', (0.322470557041267, -0.322470557041268, -9.702067435971));
#1740 = CARTESIAN_POINT ('', (0.322470557041268, 3.98730117332899E-16, -9.702067435971));
#1750 = CARTESIAN_POINT ('', (0.322470557041269, 0.322470557041269, -9.702067435971));
#1760 = CARTESIAN_POINT ('', (0., 0.32247055704127, -9.702067435971));
#1770 = CARTESIAN_POINT ('', (0., 0., -9.702067435971));
#1780 = CARTESIAN_POINT ('', (0., 0., -9.702067435971));
#1790 = CARTESIAN_POINT ('', (0., 0., -9.702067435971));
#1800 = CARTESIAN_POINT ('', (0., 0., -9.702067435971));
#1810 = CARTESIAN_POINT ('', (0., 0., -9.702067435971));
#1820 = CARTESIAN_POINT ('', (0., 0., -9.702067435971));
#1830 = CARTESIAN_POINT ('', (0., 0., -9.702067435971));
#1840 = CARTESIAN_POINT ('', (0., 0., -9.702067435971));
#1850 = CARTESIAN_POINT ('', (0., 0., -9.702067435971));
#1860 = (
   BOUNDED_SURFACE ()
   B_SPLINE_SURFACE (3, 2, ((#960, #970, #980, #990, #1000, #1010, #1020, #1030, #1040), (#1050, #1060, #1070, #1080, #1090, #1100, #1110, #1120, #1130), (#1140, #1150, #1160, #1170, #1180, #1190, #1200, #1210, #1220), (#1230, #1240, #1250, #1260, #1270, #1280, #1290, #1300, #1310), (#1320, #1330, #1340, #1350, #1360, #1370, #1380, #1390, #1400), (#1410, #1420, #1430, #1440, #1450, #1460, #1470, #1480, #1490), (#1500, #1510, #1520, #1530, #1540, #1550, #1560, #1570, #1580), (#1590, #1600, #1610, #1620, #1630, #1640, #1650, #1660, #1670), (#1680, #1690, #1700, #1710, #1720, #1730, #1740, #1750, #1760), (#1770, #1780, #1790, #1800, #1810, #1820, #1830, #1840, #1850)), .UNSPECIFIED., .F., .T., .U.)
   B_SPLINE_SURFACE_WITH_KNOTS ((4, 1, 1, 1, 1, 1, 1, 4), (3, 2, 2, 2, 3), (0., 0.210146613659017, 0.344195698276074, 0.47153380659879, 0.593453661492377, 0.711216015671583, 0.826036906402242, 1.), (0., 90., 180., 270., 360.), .UNSPECIFIED.)
   SURFACE ()
   GEOMETRIC_REPRESENTATION_ITEM ()
   RATIONAL_B_SPLINE_SURFACE (((1., 0.707106781186548, 1., 0.707106781186548, 1., 0.707106781186548, 1., 0.707106781186548, 1.), (1., 0.707106781186548, 1., 0.707106781186548, 1., 0.707106781186548, 1., 0.707106781186548, 1.), (1., 0.707106781186548, 1., 0.707106781186548, 1., 0.707106781186548, 1., 0.707106781186548, 1.), (1., 0.707106781186548, 1., 0.707106781186548, 1., 0.707106781186548, 1., 0.707106781186548, 1.), (1., 0.707106781186548, 1., 0.707106781186548, 1., 0.707106781186548, 1., 0.707106781186548, 1.), (1., 0.707106781186548, 1., 0.707106781186548, 1., 0.707106781186548, 1., 0.707106781186548, 1.), (1., 0.707106781186548, 1., 0.707106781186548, 1., 0.707106781186548, 1., 0.707106781186548, 1.), (1., 0.707106781186548, 1., 0.707106781186548, 1., 0.707106781186548, 1., 0.707106781186548, 1.), (1., 0.707106781186548, 1., 0.707106781186548, 1., 0.707106781186548, 1., 0.707106781186548, 1.), (1., 0.707106781186548, 1., 0.707106781186548, 1., 0.707106781186548, 1., 0.707106781186548, 1.)))
   REPRESENTATION_ITEM ('')
);
#1870 = ADVANCED_FACE ('', (#950), #1860, .T.);
#1880 = ORIENTED_EDGE ('', *, *, #340, .T.);
#1890 = ORIENTED_EDGE ('', *, *, #640, .T.);
#1900 = EDGE_LOOP ('', (#1880, #1890));
#1910 = FACE_OUTER_BOUND ('', #1900, .T.);
#1920 = CARTESIAN_POINT ('', (0., 10.404, -6.002067435971));
#1930 = DIRECTION ('', (0., 0., 1.));
#1940 = DIRECTION ('', (-0.707106781186548, -0.707106781186548, 0.));
#1950 = AXIS2_PLACEMENT_3D ('', #1920, #1930, #1940);
#1960 = PLANE ('', #1950);
#1970 = ADVANCED_FACE ('', (#1910), #1960, .T.);
#1980 = CLOSED_SHELL ('', (#480, #740, #1870, #1970));
#1990 = MANIFOLD_SOLID_BREP ('', #1980);
#2000 = (
   LENGTH_UNIT ()
   NAMED_UNIT (*)
   SI_UNIT (.MILLI., .METRE.)
);
#2010 = (
   NAMED_UNIT (*)
   SI_UNIT ($, .STERADIAN.)
   SOLID_ANGLE_UNIT ()
);
#2020 = (
   NAMED_UNIT (*)
   SI_UNIT ($, .RADIAN.)
   PLANE_ANGLE_UNIT ()
);
#2030 = UNCERTAINTY_MEASURE_WITH_UNIT (LENGTH_MEASURE(0.0001), #2000, 'DISTANCE_ACCURACY_VALUE', '');
#2040 = (
   GEOMETRIC_REPRESENTATION_CONTEXT (3)
   GLOBAL_UNCERTAINTY_ASSIGNED_CONTEXT ((#2030))
   GLOBAL_UNIT_ASSIGNED_CONTEXT ((#2000, #2010, #2020))
   REPRESENTATION_CONTEXT ('', '3D')
);
#2050 = ADVANCED_BREP_SHAPE_REPRESENTATION ('', (#1990), #2040);
#2060 = APPLICATION_CONTEXT ('configuration controlled 3D designs of mechanical parts and assemblies');
#2070 = APPLICATION_PROTOCOL_DEFINITION ('International Standard', 'config_control_design', 1997, #2060);
#2080 = MECHANICAL_CONTEXT ('', #2060, 'mechanical');
#2090 = PRODUCT ('NONE', '', '', (#2080));
#2100 = PERSON_AND_ORGANIZATION_ROLE ('design_owner');
#2110 = PERSON ('', '', $, $, $, $);
#2120 = ORGANIZATION ($, '', '');
#2130 = PERSON_AND_ORGANIZATION (#2110, #2120);
#2140 = CC_DESIGN_PERSON_AND_ORGANIZATION_ASSIGNMENT (#2130, #2100, (#2090));
#2150 = PRODUCT_RELATED_PRODUCT_CATEGORY ('detail', $, (#2090));
#2160 = PRODUCT_DEFINITION_FORMATION_WITH_SPECIFIED_SOURCE ('', '', #2090, .NOT_KNOWN.);
#2170 = APPROVAL_STATUS ('approved');
#2180 = APPROVAL (#2170, '');
#2190 = CALENDAR_DATE (2016, 24, 5);
#2200 = COORDINATED_UNIVERSAL_TIME_OFFSET (0, $, .AHEAD.);
#2210 = LOCAL_TIME (14, 17, 6., #2200);
#2220 = DATE_AND_TIME (#2190, #2210);
#2230 = APPROVAL_DATE_TIME (#2220, #2180);
#2240 = APPROVAL_ROLE ('');
#2250 = PERSON ('', '', $, $, $, $);
#2260 = ORGANIZATION ($, '', '');
#2270 = PERSON_AND_ORGANIZATION (#2250, #2260);
#2280 = APPROVAL_PERSON_ORGANIZATION (#2270, #2180, #2240);
#2290 = CC_DESIGN_APPROVAL (#2180, (#2160));
#2300 = PERSON_AND_ORGANIZATION_ROLE ('creator');
#2310 = PERSON ('', '', $, $, $, $);
#2320 = ORGANIZATION ($, '', '');
#2330 = PERSON_AND_ORGANIZATION (#2310, #2320);
#2340 = CC_DESIGN_PERSON_AND_ORGANIZATION_ASSIGNMENT (#2330, #2300, (#2160));
#2350 = PERSON_AND_ORGANIZATION_ROLE ('part_supplier');
#2360 = PERSON ('', '', $, $, $, $);
#2370 = ORGANIZATION ($, '', '');
#2380 = PERSON_AND_ORGANIZATION (#2360, #2370);
#2390 = CC_DESIGN_PERSON_AND_ORGANIZATION_ASSIGNMENT (#2380, #2350, (#2160));
#2400 = SECURITY_CLASSIFICATION_LEVEL ('unclassified');
#2410 = SECURITY_CLASSIFICATION ('', '', #2400);
#2420 = APPROVAL_STATUS ('approved');
#2430 = APPROVAL (#2420, '');
#2440 = CALENDAR_DATE (2016, 24, 5);
#2450 = COORDINATED_UNIVERSAL_TIME_OFFSET (0, $, .AHEAD.);
#2460 = LOCAL_TIME (14, 17, 6., #2450);
#2470 = DATE_AND_TIME (#2440, #2460);
#2480 = APPROVAL_DATE_TIME (#2470, #2430);
#2490 = APPROVAL_ROLE ('');
#2500 = PERSON ('', '', $, $, $, $);
#2510 = ORGANIZATION ($, '', '');
#2520 = PERSON_AND_ORGANIZATION (#2500, #2510);
#2530 = APPROVAL_PERSON_ORGANIZATION (#2520, #2430, #2490);
#2540 = CC_DESIGN_APPROVAL (#2430, (#2410));
#2550 = DATE_TIME_ROLE ('classification_date');
#2560 = CALENDAR_DATE (2016, 24, 5);
#2570 = COORDINATED_UNIVERSAL_TIME_OFFSET (0, $, .AHEAD.);
#2580 = LOCAL_TIME (14, 17, 6., #2570);
#2590 = DATE_AND_TIME (#2560, #2580);
#2600 = CC_DESIGN_DATE_AND_TIME_ASSIGNMENT (#2590, #2550, (#2410));
#2610 = PERSON_AND_ORGANIZATION_ROLE ('classification_officer');
#2620 = PERSON ('', '', $, $, $, $);
#2630 = ORGANIZATION ($, '', '');
#2640 = PERSON_AND_ORGANIZATION (#2620, #2630);
#2650 = CC_DESIGN_PERSON_AND_ORGANIZATION_ASSIGNMENT (#2640, #2610, (#2410));
#2660 = CC_DESIGN_SECURITY_CLASSIFICATION (#2410, (#2160));
#2670 = DESIGN_CONTEXT ('', #2060, 'design');
#2680 = PRODUCT_DEFINITION ('', '', #2160, #2670);
#2690 = APPROVAL_STATUS ('approved');
#2700 = APPROVAL (#2690, '');
#2710 = CALENDAR_DATE (2016, 24, 5);
#2720 = COORDINATED_UNIVERSAL_TIME_OFFSET (0, $, .AHEAD.);
#2730 = LOCAL_TIME (14, 17, 6., #2720);
#2740 = DATE_AND_TIME (#2710, #2730);
#2750 = APPROVAL_DATE_TIME (#2740, #2700);
#2760 = APPROVAL_ROLE ('');
#2770 = PERSON ('', '', $, $, $, $);
#2780 = ORGANIZATION ($, '', '');
#2790 = PERSON_AND_ORGANIZATION (#2770, #2780);
#2800 = APPROVAL_PERSON_ORGANIZATION (#2790, #2700, #2760);
#2810 = CC_DESIGN_APPROVAL (#2700, (#2680));
#2820 = DATE_TIME_ROLE ('creation_date');
#2830 = CALENDAR_DATE (2016, 24, 5);
#2840 = COORDINATED_UNIVERSAL_TIME_OFFSET (0, $, .AHEAD.);
#2850 = LOCAL_TIME (14, 17, 6., #2840);
#2860 = DATE_AND_TIME (#2830, #2850);
#2870 = CC_DESIGN_DATE_AND_TIME_ASSIGNMENT (#2860, #2820, (#2680));
#2880 = PERSON_AND_ORGANIZATION_ROLE ('creator');
#2890 = PERSON ('', '', $, $, $, $);
#2900 = ORGANIZATION ($, '', '');
#2910 = PERSON_AND_ORGANIZATION (#2890, #2900);
#2920 = CC_DESIGN_PERSON_AND_ORGANIZATION_ASSIGNMENT (#2910, #2880, (#2680));
#2930 = PRODUCT_DEFINITION_SHAPE ('', '', #2680);
#2940 = SHAPE_DEFINITION_REPRESENTATION (#2930, #2050);
#2950 = PRESENTATION_LAYER_ASSIGNMENT ('Level 0', 'Level 0', (#1990));
ENDSEC;
END-ISO-10303-21;
