ISO-10303-21;
HEADER;
FILE_DESCRIPTION ((), '1');
FILE_NAME ('\\\\fileserver\\Daten\\Applikationen\\Optikdesign\\SPA-Design\\aktuelle SPA-Designs\\Linsenkataloge - 2016-Juni\\Zemax\\AFL\\AFL50-60.STP', '2016-05-24T14:16:13', ('Unknown'), ('Unknown'), 'HarmonyWare STEP v2.0.1', 'HarmonyWare Translators', '');
FILE_SCHEMA (('CONFIG_CONTROL_DESIGN'));
ENDSEC;

DATA;
#10 = CARTESIAN_POINT ('', (25., 0., 11.5386677658196));
#20 = VERTEX_POINT ('', #10);
#30 = CARTESIAN_POINT ('', (1.53080849893419E-15, 25., 11.5386677658196));
#40 = VERTEX_POINT ('', #30);
#50 = CARTESIAN_POINT ('', (25., 0., 11.5386677658196));
#60 = CARTESIAN_POINT ('', (25., 25., 11.5386677658196));
#70 = CARTESIAN_POINT ('', (1.53080849893419E-15, 25., 11.5386677658196));
#80 = (
   BOUNDED_CURVE ()
   B_SPLINE_CURVE (2, (#50, #60, #70), .UNSPECIFIED., .F., .U.)
   B_SPLINE_CURVE_WITH_KNOTS ((3, 3), (0., 1.5707963267949), .UNSPECIFIED.)
   CURVE ()
   GEOMETRIC_REPRESENTATION_ITEM ()
   RATIONAL_B_SPLINE_CURVE ((1., 0.707106781186548, 1.))
   REPRESENTATION_ITEM ('')
);
#90 = EDGE_CURVE ('', #20, #40, #80, .T.);
#100 = ORIENTED_EDGE ('', *, *, #90, .T.);
#110 = CARTESIAN_POINT ('', (-25., 3.06161699786838E-15, 11.5386677658196));
#120 = VERTEX_POINT ('', #110);
#130 = CARTESIAN_POINT ('', (1.53080849893419E-15, 25., 11.5386677658196));
#140 = CARTESIAN_POINT ('', (-25., 25., 11.5386677658196));
#150 = CARTESIAN_POINT ('', (-25., 3.06161699786838E-15, 11.5386677658196));
#160 = (
   BOUNDED_CURVE ()
   B_SPLINE_CURVE (2, (#130, #140, #150), .UNSPECIFIED., .F., .U.)
   B_SPLINE_CURVE_WITH_KNOTS ((3, 3), (1.5707963267949, 3.14159265358979), .UNSPECIFIED.)
   CURVE ()
   GEOMETRIC_REPRESENTATION_ITEM ()
   RATIONAL_B_SPLINE_CURVE ((1., 0.707106781186548, 1.))
   REPRESENTATION_ITEM ('')
);
#170 = EDGE_CURVE ('', #40, #120, #160, .T.);
#180 = ORIENTED_EDGE ('', *, *, #170, .T.);
#190 = CARTESIAN_POINT ('', (-25., 3.06161699786838E-15, 17.5));
#200 = VERTEX_POINT ('', #190);
#210 = CARTESIAN_POINT ('', (-25., 3.06161699786838E-15, 11.5386677658196));
#220 = CARTESIAN_POINT ('', (-25., 3.06161699786838E-15, 17.5));
#230 = B_SPLINE_CURVE_WITH_KNOTS ('', 1, (#210, #220), .UNSPECIFIED., .F., .U., (2, 2), (0., 1.), .UNSPECIFIED.);
#240 = EDGE_CURVE ('', #120, #200, #230, .T.);
#250 = ORIENTED_EDGE ('', *, *, #240, .T.);
#260 = CARTESIAN_POINT ('', (25., 0., 17.5));
#270 = VERTEX_POINT ('', #260);
#280 = CARTESIAN_POINT ('', (25., 0., 17.5));
#290 = CARTESIAN_POINT ('', (25., 25., 17.5));
#300 = CARTESIAN_POINT ('', (1.53080849893419E-15, 25., 17.5));
#310 = CARTESIAN_POINT ('', (-25., 25., 17.5));
#320 = CARTESIAN_POINT ('', (-25., 3.06161699786838E-15, 17.5));
#330 = (
   BOUNDED_CURVE ()
   B_SPLINE_CURVE (2, (#280, #290, #300, #310, #320), .UNSPECIFIED., .F., .U.)
   B_SPLINE_CURVE_WITH_KNOTS ((3, 2, 3), (0., 1.5707963267949, 3.14159265358979), .UNSPECIFIED.)
   CURVE ()
   GEOMETRIC_REPRESENTATION_ITEM ()
   RATIONAL_B_SPLINE_CURVE ((1., 0.707106781186548, 1., 0.707106781186548, 1.))
   REPRESENTATION_ITEM ('')
);
#340 = EDGE_CURVE ('', #270, #200, #330, .T.);
#350 = ORIENTED_EDGE ('', *, *, #340, .F.);
#360 = CARTESIAN_POINT ('', (25., 0., 11.5386677658196));
#370 = CARTESIAN_POINT ('', (25., 0., 17.5));
#380 = B_SPLINE_CURVE_WITH_KNOTS ('', 1, (#360, #370), .UNSPECIFIED., .F., .U., (2, 2), (0., 1.), .UNSPECIFIED.);
#390 = EDGE_CURVE ('', #20, #270, #380, .T.);
#400 = ORIENTED_EDGE ('', *, *, #390, .F.);
#410 = EDGE_LOOP ('', (#100, #180, #250, #350, #400));
#420 = FACE_OUTER_BOUND ('', #410, .T.);
#430 = CARTESIAN_POINT ('', (3.5527136788005E-15, -5.32907051820075E-15, 11.5386677658196));
#440 = DIRECTION ('', (7.105427357601E-17, 1.51461293802434E-32, 1.));
#450 = DIRECTION ('', (1., 2.1316282072803E-16, -7.105427357601E-17));
#460 = AXIS2_PLACEMENT_3D ('', #430, #440, #450);
#470 = CYLINDRICAL_SURFACE ('', #460, 25.);
#480 = ADVANCED_FACE ('', (#420), #470, .T.);
#490 = CARTESIAN_POINT ('', (-25., 3.06161699786838E-15, 11.5386677658196));
#500 = CARTESIAN_POINT ('', (-25., -25., 11.5386677658196));
#510 = CARTESIAN_POINT ('', (-4.59242549680257E-15, -25., 11.5386677658196));
#520 = CARTESIAN_POINT ('', (25., -25., 11.5386677658196));
#530 = CARTESIAN_POINT ('', (25., -6.12323399573677E-15, 11.5386677658196));
#540 = (
   BOUNDED_CURVE ()
   B_SPLINE_CURVE (2, (#490, #500, #510, #520, #530), .UNSPECIFIED., .F., .U.)
   B_SPLINE_CURVE_WITH_KNOTS ((3, 2, 3), (3.14159265358979, 4.71238898038469, 6.28318530717959), .UNSPECIFIED.)
   CURVE ()
   GEOMETRIC_REPRESENTATION_ITEM ()
   RATIONAL_B_SPLINE_CURVE ((1., 0.707106781186548, 1., 0.707106781186548, 1.))
   REPRESENTATION_ITEM ('')
);
#550 = EDGE_CURVE ('', #120, #20, #540, .T.);
#560 = ORIENTED_EDGE ('', *, *, #550, .T.);
#570 = ORIENTED_EDGE ('', *, *, #390, .T.);
#580 = CARTESIAN_POINT ('', (-25., 3.06161699786838E-15, 17.5));
#590 = CARTESIAN_POINT ('', (-25., -25., 17.5));
#600 = CARTESIAN_POINT ('', (-4.59242549680257E-15, -25., 17.5));
#610 = CARTESIAN_POINT ('', (25., -25., 17.5));
#620 = CARTESIAN_POINT ('', (25., -6.12323399573677E-15, 17.5));
#630 = (
   BOUNDED_CURVE ()
   B_SPLINE_CURVE (2, (#580, #590, #600, #610, #620), .UNSPECIFIED., .F., .U.)
   B_SPLINE_CURVE_WITH_KNOTS ((3, 2, 3), (3.14159265358979, 4.71238898038469, 6.28318530717959), .UNSPECIFIED.)
   CURVE ()
   GEOMETRIC_REPRESENTATION_ITEM ()
   RATIONAL_B_SPLINE_CURVE ((1., 0.707106781186548, 1., 0.707106781186548, 1.))
   REPRESENTATION_ITEM ('')
);
#640 = EDGE_CURVE ('', #200, #270, #630, .T.);
#650 = ORIENTED_EDGE ('', *, *, #640, .F.);
#660 = ORIENTED_EDGE ('', *, *, #240, .F.);
#670 = EDGE_LOOP ('', (#560, #570, #650, #660));
#680 = FACE_OUTER_BOUND ('', #670, .T.);
#690 = CARTESIAN_POINT ('', (-1.77635683940025E-15, 1.77635683940025E-15, 11.5386677658196));
#700 = DIRECTION ('', (-7.105427357601E-17, 3.65292907664563E-33, 1.));
#710 = DIRECTION ('', (-1., 5.14104063387253E-17, -7.105427357601E-17));
#720 = AXIS2_PLACEMENT_3D ('', #690, #700, #710);
#730 = CYLINDRICAL_SURFACE ('', #720, 25.);
#740 = ADVANCED_FACE ('', (#680), #730, .T.);
#750 = CARTESIAN_POINT ('', (0., 0., 0.));
#760 = VERTEX_POINT ('', #750);
#770 = CARTESIAN_POINT ('', (0., 0., 0.));
#780 = CARTESIAN_POINT ('', (0., 1.08727084192063, 0.));
#790 = CARTESIAN_POINT ('', (0., 2.9647779338489, 0.103989201480892));
#800 = CARTESIAN_POINT ('', (0., 5.35033622235164, 0.463970280694003));
#810 = CARTESIAN_POINT ('', (0., 7.43831309798392, 0.919986798329424));
#820 = CARTESIAN_POINT ('', (0., 9.53493628295515, 1.52324489803221));
#830 = CARTESIAN_POINT ('', (-3.94430452610506E-31, 11.6138174459082, 2.29868646522519));
#840 = CARTESIAN_POINT ('', (0., 13.9776376869641, 3.35319562884052));
#850 = CARTESIAN_POINT ('', (0., 16.0663332103403, 4.4808656310125));
#860 = CARTESIAN_POINT ('', (0., 18.6803867767936, 6.14307579272055));
#870 = CARTESIAN_POINT ('', (0., 20.7683817058413, 7.69346588649927));
#880 = CARTESIAN_POINT ('', (0., 23.0506252203085, 9.64002269399863));
#890 = CARTESIAN_POINT ('', (0., 24.2841321539187, 10.8146999865364));
#900 = CARTESIAN_POINT ('', (0., 25., 11.5386677658196));
#910 = B_SPLINE_CURVE_WITH_KNOTS ('', 3, (#770, #780, #790, #800, #810, #820, #830, #840, #850, #860, #870, #880, #890, #900), .UNSPECIFIED., .F., .U., (4, 1, 1, 1, 1, 1, 1, 1, 1, 1, 1, 4), (0., 0.115332613524419, 0.199160823945214, 0.255715226075822, 0.34195897223657, 0.430410193936603, 0.490904371645074, 0.616434604887661, 0.681896549564948, 0.819407794486174, 0.892001137495529, 1.), .UNSPECIFIED.);
#920 = EDGE_CURVE ('', #760, #40, #910, .T.);
#930 = ORIENTED_EDGE ('', *, *, #920, .T.);
#940 = ORIENTED_EDGE ('', *, *, #90, .F.);
#950 = ORIENTED_EDGE ('', *, *, #550, .F.);
#960 = ORIENTED_EDGE ('', *, *, #170, .F.);
#970 = ORIENTED_EDGE ('', *, *, #920, .F.);
#980 = EDGE_LOOP ('', (#930, #940, #950, #960, #970));
#990 = FACE_OUTER_BOUND ('', #980, .T.);
#1000 = CARTESIAN_POINT ('', (0., 25., 11.5386677658196));
#1010 = CARTESIAN_POINT ('', (-25., 25., 11.5386677658195));
#1020 = CARTESIAN_POINT ('', (-25., 1.01905480910104E-14, 11.5386677658195));
#1030 = CARTESIAN_POINT ('', (-25., -25., 11.5386677658195));
#1040 = CARTESIAN_POINT ('', (-1.37197580342699E-14, -25., 11.5386677658196));
#1050 = CARTESIAN_POINT ('', (25., -25., 11.5386677658196));
#1060 = CARTESIAN_POINT ('', (25., -6.59082694112786E-15, 11.5386677658196));
#1070 = CARTESIAN_POINT ('', (25., 25., 11.5386677658196));
#1080 = CARTESIAN_POINT ('', (0., 25., 11.5386677658196));
#1090 = CARTESIAN_POINT ('', (0., 24.2841321539187, 10.8146999865364));
#1100 = CARTESIAN_POINT ('', (-24.2841321539187, 24.2841321539187, 10.8146999865364));
#1110 = CARTESIAN_POINT ('', (-24.2841321539187, 9.97163243021956E-15, 10.8146999865364));
#1120 = CARTESIAN_POINT ('', (-24.2841321539187, -24.2841321539187, 10.8146999865364));
#1130 = CARTESIAN_POINT ('', (-1.32819267126882E-14, -24.2841321539187, 10.8146999865364));
#1140 = CARTESIAN_POINT ('', (24.2841321539187, -24.2841321539187, 10.8146999865365));
#1150 = CARTESIAN_POINT ('', (24.2841321539187, -6.2842427537054E-15, 10.8146999865365));
#1160 = CARTESIAN_POINT ('', (24.2841321539187, 24.2841321539187, 10.8146999865365));
#1170 = CARTESIAN_POINT ('', (0., 24.2841321539187, 10.8146999865364));
#1180 = CARTESIAN_POINT ('', (0., 23.0506252203085, 9.64002269399863));
#1190 = CARTESIAN_POINT ('', (-23.0506252203085, 23.0506252203085, 9.64002269399863));
#1200 = CARTESIAN_POINT ('', (-23.0506252203085, 9.61202277731381E-15, 9.64002269399863));
#1210 = CARTESIAN_POINT ('', (-23.0506252203085, -23.0506252203085, 9.64002269399863));
#1220 = CARTESIAN_POINT ('', (-1.25627074068767E-14, -23.0506252203085, 9.64002269399863));
#1230 = CARTESIAN_POINT ('', (23.0506252203085, -23.0506252203085, 9.64002269399864));
#1240 = CARTESIAN_POINT ('', (23.0506252203085, -5.77357206900248E-15, 9.64002269399864));
#1250 = CARTESIAN_POINT ('', (23.0506252203085, 23.0506252203085, 9.64002269399864));
#1260 = CARTESIAN_POINT ('', (0., 23.0506252203085, 9.64002269399863));
#1270 = CARTESIAN_POINT ('', (0., 20.7683817058413, 7.69346588649927));
#1280 = CARTESIAN_POINT ('', (-20.7683817058413, 20.7683817058413, 7.69346588649926));
#1290 = CARTESIAN_POINT ('', (-20.7683817058413, 9.00152835450217E-15, 7.69346588649926));
#1300 = CARTESIAN_POINT ('', (-20.7683817058413, -20.7683817058413, 7.69346588649926));
#1310 = CARTESIAN_POINT ('', (-1.13417185612534E-14, -20.7683817058413, 7.69346588649927));
#1320 = CARTESIAN_POINT ('', (20.7683817058413, -20.7683817058413, 7.69346588649927));
#1330 = CARTESIAN_POINT ('', (20.7683817058413, -4.88358342470414E-15, 7.69346588649927));
#1340 = CARTESIAN_POINT ('', (20.7683817058413, 20.7683817058413, 7.69346588649927));
#1350 = CARTESIAN_POINT ('', (0., 20.7683817058413, 7.69346588649927));
#1360 = CARTESIAN_POINT ('', (0., 18.6803867767936, 6.14307579272055));
#1370 = CARTESIAN_POINT ('', (-18.6803867767936, 18.6803867767936, 6.14307579272054));
#1380 = CARTESIAN_POINT ('', (-18.6803867767936, 8.49873555977804E-15, 6.14307579272054));
#1390 = CARTESIAN_POINT ('', (-18.6803867767936, -18.6803867767936, 6.14307579272054));
#1400 = CARTESIAN_POINT ('', (-1.03361329718051E-14, -18.6803867767936, 6.14307579272055));
#1410 = CARTESIAN_POINT ('', (18.6803867767936, -18.6803867767936, 6.14307579272055));
#1420 = CARTESIAN_POINT ('', (18.6803867767936, -4.12508499933058E-15, 6.14307579272055));
#1430 = CARTESIAN_POINT ('', (18.6803867767936, 18.6803867767936, 6.14307579272055));
#1440 = CARTESIAN_POINT ('', (0., 18.6803867767936, 6.14307579272055));
#1450 = CARTESIAN_POINT ('', (0., 16.0663332103403, 4.4808656310125));
#1460 = CARTESIAN_POINT ('', (-16.0663332103403, 16.0663332103403, 4.48086563101249));
#1470 = CARTESIAN_POINT ('', (-16.0663332103403, 7.93668885727375E-15, 4.48086563101249));
#1480 = CARTESIAN_POINT ('', (-16.0663332103403, -16.0663332103403, 4.48086563101249));
#1490 = CARTESIAN_POINT ('', (-9.21203956679657E-15, -16.0663332103403, 4.4808656310125));
#1500 = CARTESIAN_POINT ('', (16.0663332103403, -16.0663332103403, 4.4808656310125));
#1510 = CARTESIAN_POINT ('', (16.0663332103403, -3.24290906353062E-15, 4.4808656310125));
#1520 = CARTESIAN_POINT ('', (16.0663332103403, 16.0663332103403, 4.4808656310125));
#1530 = CARTESIAN_POINT ('', (0., 16.0663332103403, 4.4808656310125));
#1540 = CARTESIAN_POINT ('', (0., 13.9776376869641, 3.35319562884052));
#1550 = CARTESIAN_POINT ('', (-13.9776376869641, 13.9776376869641, 3.35319562884052));
#1560 = CARTESIAN_POINT ('', (-13.9776376869641, 7.53608205615419E-15, 3.35319562884052));
#1570 = CARTESIAN_POINT ('', (-13.9776376869641, -13.9776376869641, 3.35319562884052));
#1580 = CARTESIAN_POINT ('', (-8.41082596455744E-15, -13.9776376869641, 3.35319562884052));
#1590 = CARTESIAN_POINT ('', (13.9776376869641, -13.9776376869641, 3.35319562884052));
#1600 = CARTESIAN_POINT ('', (13.9776376869641, -2.58651083370145E-15, 3.35319562884052));
#1610 = CARTESIAN_POINT ('', (13.9776376869641, 13.9776376869641, 3.35319562884052));
#1620 = CARTESIAN_POINT ('', (0., 13.9776376869641, 3.35319562884052));
#1630 = CARTESIAN_POINT ('', (-3.94430452610506E-31, 11.6138174459082, 2.29868646522519));
#1640 = CARTESIAN_POINT ('', (-11.6138174459082, 11.6138174459082, 2.29868646522518));
#1650 = CARTESIAN_POINT ('', (-11.6138174459082, 7.13632164182609E-15, 2.29868646522518));
#1660 = CARTESIAN_POINT ('', (-11.6138174459082, -11.6138174459082, 2.29868646522518));
#1670 = CARTESIAN_POINT ('', (-7.61130513590124E-15, -11.6138174459082, 2.29868646522519));
#1680 = CARTESIAN_POINT ('', (11.6138174459082, -11.6138174459082, 2.29868646522519));
#1690 = CARTESIAN_POINT ('', (11.6138174459082, -1.89726593017647E-15, 2.29868646522519));
#1700 = CARTESIAN_POINT ('', (11.6138174459082, 11.6138174459082, 2.29868646522519));
#1710 = CARTESIAN_POINT ('', (-3.94430452610506E-31, 11.6138174459082, 2.29868646522519));
#1720 = CARTESIAN_POINT ('', (0., 9.53493628295515, 1.52324489803221));
#1730 = CARTESIAN_POINT ('', (-9.53493628295514, 9.53493628295515, 1.5232448980322));
#1740 = CARTESIAN_POINT ('', (-9.53493628295515, 6.82149727656665E-15, 1.5232448980322));
#1750 = CARTESIAN_POINT ('', (-9.53493628295515, -9.53493628295514, 1.5232448980322));
#1760 = CARTESIAN_POINT ('', (-6.98165640538236E-15, -9.53493628295514, 1.52324489803221));
#1770 = CARTESIAN_POINT ('', (9.53493628295514, -9.53493628295514, 1.52324489803221));
#1780 = CARTESIAN_POINT ('', (9.53493628295514, -1.32785204871521E-15, 1.52324489803221));
#1790 = CARTESIAN_POINT ('', (9.53493628295515, 9.53493628295514, 1.52324489803221));
#1800 = CARTESIAN_POINT ('', (0., 9.53493628295515, 1.52324489803221));
#1810 = CARTESIAN_POINT ('', (0., 7.43831309798392, 0.919986798329424));
#1820 = CARTESIAN_POINT ('', (-7.43831309798391, 7.43831309798392, 0.919986798329422));
#1830 = CARTESIAN_POINT ('', (-7.43831309798392, 6.54722666913368E-15, 0.919986798329422));
#1840 = CARTESIAN_POINT ('', (-7.43831309798392, -7.43831309798391, 0.919986798329422));
#1850 = CARTESIAN_POINT ('', (-6.43311519051642E-15, -7.43831309798391, 0.919986798329423));
#1860 = CARTESIAN_POINT ('', (7.43831309798391, -7.43831309798392, 0.919986798329425));
#1870 = CARTESIAN_POINT ('', (7.43831309798391, -7.96819154032924E-16, 0.919986798329425));
#1880 = CARTESIAN_POINT ('', (7.43831309798392, 7.43831309798391, 0.919986798329426));
#1890 = CARTESIAN_POINT ('', (0., 7.43831309798392, 0.919986798329424));
#1900 = CARTESIAN_POINT ('', (0., 5.35033622235164, 0.463970280694003));
#1910 = CARTESIAN_POINT ('', (-5.35033622235164, 5.35033622235164, 0.463970280694002));
#1920 = CARTESIAN_POINT ('', (-5.35033622235164, 6.30909379556368E-15, 0.463970280694002));
#1930 = CARTESIAN_POINT ('', (-5.35033622235164, -5.35033622235163, 0.463970280694001));
#1940 = CARTESIAN_POINT ('', (-5.95684944337641E-15, -5.35033622235163, 0.463970280694002));
#1950 = CARTESIAN_POINT ('', (5.35033622235163, -5.35033622235164, 0.463970280694004));
#1960 = CARTESIAN_POINT ('', (5.35033622235163, -3.02982860719244E-16, 0.463970280694004));
#1970 = CARTESIAN_POINT ('', (5.35033622235164, 5.35033622235164, 0.463970280694005));
#1980 = CARTESIAN_POINT ('', (0., 5.35033622235164, 0.463970280694003));
#1990 = CARTESIAN_POINT ('', (0., 2.9647779338489, 0.103989201480892));
#2000 = CARTESIAN_POINT ('', (-2.96477793384889, 2.9647779338489, 0.103989201480891));
#2010 = CARTESIAN_POINT ('', (-2.9647779338489, 6.07596413217339E-15, 0.103989201480892));
#2020 = CARTESIAN_POINT ('', (-2.9647779338489, -2.96477793384889, 0.103989201480893));
#2030 = CARTESIAN_POINT ('', (-5.49059011659585E-15, -2.96477793384889, 0.103989201480893));
#2040 = CARTESIAN_POINT ('', (2.96477793384889, -2.96477793384889, 0.103989201480894));
#2050 = CARTESIAN_POINT ('', (2.96477793384889, 2.22293434890469E-16, 0.103989201480893));
#2060 = CARTESIAN_POINT ('', (2.96477793384889, 2.96477793384889, 0.103989201480893));
#2070 = CARTESIAN_POINT ('', (0., 2.9647779338489, 0.103989201480892));
#2080 = CARTESIAN_POINT ('', (0., 1.08727084192063, 0.));
#2090 = CARTESIAN_POINT ('', (-1.08727084192063, 1.08727084192064, -2.62941119597675E-16));
#2100 = CARTESIAN_POINT ('', (-1.08727084192063, 5.93585165780478E-15, -2.62941119597675E-16));
#2110 = CARTESIAN_POINT ('', (-1.08727084192064, -1.08727084192062, -2.62941119597675E-16));
#2120 = CARTESIAN_POINT ('', (-5.21036516785861E-15, -1.08727084192063, -3.22010000479514E-32));
#2130 = CARTESIAN_POINT ('', (1.08727084192063, -1.08727084192063, 2.62941119597675E-16));
#2140 = CARTESIAN_POINT ('', (1.08727084192063, 5.92334214309727E-16, 2.62941119597675E-16));
#2150 = CARTESIAN_POINT ('', (1.08727084192063, 1.08727084192063, 2.62941119597675E-16));
#2160 = CARTESIAN_POINT ('', (0., 1.08727084192063, 0.));
#2170 = CARTESIAN_POINT ('', (0., 0., 0.));
#2180 = CARTESIAN_POINT ('', (0., 0., 0.));
#2190 = CARTESIAN_POINT ('', (0., 0., 0.));
#2200 = CARTESIAN_POINT ('', (0., 0., 0.));
#2210 = CARTESIAN_POINT ('', (0., 0., 0.));
#2220 = CARTESIAN_POINT ('', (0., 0., 0.));
#2230 = CARTESIAN_POINT ('', (0., 0., 0.));
#2240 = CARTESIAN_POINT ('', (0., 0., 0.));
#2250 = CARTESIAN_POINT ('', (0., 0., 0.));
#2260 = (
   BOUNDED_SURFACE ()
   B_SPLINE_SURFACE (3, 2, ((#1000, #1010, #1020, #1030, #1040, #1050, #1060, #1070, #1080), (#1090, #1100, #1110, #1120, #1130, #1140, #1150, #1160, #1170), (#1180, #1190, #1200, #1210, #1220, #1230, #1240, #1250, #1260), (#1270, #1280, #1290, #1300, #1310, #1320, #1330, #1340, #1350), (#1360, #1370, #1380, #1390, #1400, #1410, #1420, #1430, #1440), (#1450, #1460, #1470, #1480, #1490, #1500, #1510, #1520, #1530), (#1540, #1550, #1560, #1570, #1580, #1590, #1600, #1610, #1620), (#1630, #1640, #1650, #1660, #1670, #1680, #1690, #1700, #1710), (#1720, #1730, #1740, #1750, #1760, #1770, #1780, #1790, #1800), (#1810, #1820, #1830, #1840, #1850, #1860, #1870, #1880, #1890), (#1900, #1910, #1920, #1930, #1940, #1950, #1960, #1970, #1980), (#1990, #2000, #2010, #2020, #2030, #2040, #2050, #2060, #2070), (#2080, #2090, #2100, #2110, #2120, #2130, #2140, #2150, #2160), (#2170, #2180, #2190, #2200, #2210, #2220, #2230, #2240, #2250)), .UNSPECIFIED., .F., .T., .U.)
   B_SPLINE_SURFACE_WITH_KNOTS ((4, 1, 1, 1, 1, 1, 1, 1, 1, 1, 1, 4), (3, 2, 2, 2, 3), (0., 0.107998862504471, 0.180592205513826, 0.318103450435052, 0.383565395112339, 0.509095628354926, 0.569589806063397, 0.65804102776343, 0.744284773924178, 0.800839176054786, 0.884667386475581, 1.), (0., 90., 180., 270., 360.), .UNSPECIFIED.)
   SURFACE ()
   GEOMETRIC_REPRESENTATION_ITEM ()
   RATIONAL_B_SPLINE_SURFACE (((1., 0.707106781186548, 1., 0.707106781186548, 1., 0.707106781186548, 1., 0.707106781186548, 1.), (1., 0.707106781186548, 1., 0.707106781186548, 1., 0.707106781186548, 1., 0.707106781186548, 1.), (1., 0.707106781186548, 1., 0.707106781186548, 1., 0.707106781186548, 1., 0.707106781186548, 1.), (1., 0.707106781186548, 1., 0.707106781186548, 1., 0.707106781186548, 1., 0.707106781186548, 1.), (1., 0.707106781186548, 1., 0.707106781186548, 1., 0.707106781186548, 1., 0.707106781186548, 1.), (1., 0.707106781186548, 1., 0.707106781186548, 1., 0.707106781186548, 1., 0.707106781186548, 1.), (1., 0.707106781186548, 1., 0.707106781186548, 1., 0.707106781186548, 1., 0.707106781186548, 1.), (1., 0.707106781186548, 1., 0.707106781186548, 1., 0.707106781186548, 1., 0.707106781186548, 1.), (1., 0.707106781186548, 1., 0.707106781186548, 1., 0.707106781186548, 1., 0.707106781186548, 1.), (1., 0.707106781186548, 1., 0.707106781186548, 1., 0.707106781186548, 1., 0.707106781186548, 1.), (1., 0.707106781186548, 1., 0.707106781186548, 1., 0.707106781186548, 1., 0.707106781186548, 1.), (1., 0.707106781186548, 1., 0.707106781186548, 1., 0.707106781186548, 1., 0.707106781186548, 1.), (1., 0.707106781186548, 1., 0.707106781186548, 1., 0.707106781186548, 1., 0.707106781186548, 1.), (1., 0.707106781186548, 1., 0.707106781186548, 1., 0.707106781186548, 1., 0.707106781186548, 1.)))
   REPRESENTATION_ITEM ('')
);
#2270 = ADVANCED_FACE ('', (#990), #2260, .T.);
#2280 = ORIENTED_EDGE ('', *, *, #340, .T.);
#2290 = ORIENTED_EDGE ('', *, *, #640, .T.);
#2300 = EDGE_LOOP ('', (#2280, #2290));
#2310 = FACE_OUTER_BOUND ('', #2300, .T.);
#2320 = CARTESIAN_POINT ('', (0., 51.204, 17.5));
#2330 = DIRECTION ('', (0., 0., 1.));
#2340 = DIRECTION ('', (-0.707106781186548, -0.707106781186548, 0.));
#2350 = AXIS2_PLACEMENT_3D ('', #2320, #2330, #2340);
#2360 = PLANE ('', #2350);
#2370 = ADVANCED_FACE ('', (#2310), #2360, .T.);
#2380 = CLOSED_SHELL ('', (#480, #740, #2270, #2370));
#2390 = MANIFOLD_SOLID_BREP ('', #2380);
#2400 = (
   LENGTH_UNIT ()
   NAMED_UNIT (*)
   SI_UNIT (.MILLI., .METRE.)
);
#2410 = (
   NAMED_UNIT (*)
   SI_UNIT ($, .STERADIAN.)
   SOLID_ANGLE_UNIT ()
);
#2420 = (
   NAMED_UNIT (*)
   SI_UNIT ($, .RADIAN.)
   PLANE_ANGLE_UNIT ()
);
#2430 = UNCERTAINTY_MEASURE_WITH_UNIT (LENGTH_MEASURE(0.0001), #2400, 'DISTANCE_ACCURACY_VALUE', '');
#2440 = (
   GEOMETRIC_REPRESENTATION_CONTEXT (3)
   GLOBAL_UNCERTAINTY_ASSIGNED_CONTEXT ((#2430))
   GLOBAL_UNIT_ASSIGNED_CONTEXT ((#2400, #2410, #2420))
   REPRESENTATION_CONTEXT ('', '3D')
);
#2450 = ADVANCED_BREP_SHAPE_REPRESENTATION ('', (#2390), #2440);
#2460 = APPLICATION_CONTEXT ('configuration controlled 3D designs of mechanical parts and assemblies');
#2470 = APPLICATION_PROTOCOL_DEFINITION ('International Standard', 'config_control_design', 1997, #2460);
#2480 = MECHANICAL_CONTEXT ('', #2460, 'mechanical');
#2490 = PRODUCT ('NONE', '', '', (#2480));
#2500 = PERSON_AND_ORGANIZATION_ROLE ('design_owner');
#2510 = PERSON ('', '', $, $, $, $);
#2520 = ORGANIZATION ($, '', '');
#2530 = PERSON_AND_ORGANIZATION (#2510, #2520);
#2540 = CC_DESIGN_PERSON_AND_ORGANIZATION_ASSIGNMENT (#2530, #2500, (#2490));
#2550 = PRODUCT_RELATED_PRODUCT_CATEGORY ('detail', $, (#2490));
#2560 = PRODUCT_DEFINITION_FORMATION_WITH_SPECIFIED_SOURCE ('', '', #2490, .NOT_KNOWN.);
#2570 = APPROVAL_STATUS ('approved');
#2580 = APPROVAL (#2570, '');
#2590 = CALENDAR_DATE (2016, 24, 5);
#2600 = COORDINATED_UNIVERSAL_TIME_OFFSET (0, $, .AHEAD.);
#2610 = LOCAL_TIME (14, 16, 13., #2600);
#2620 = DATE_AND_TIME (#2590, #2610);
#2630 = APPROVAL_DATE_TIME (#2620, #2580);
#2640 = APPROVAL_ROLE ('');
#2650 = PERSON ('', '', $, $, $, $);
#2660 = ORGANIZATION ($, '', '');
#2670 = PERSON_AND_ORGANIZATION (#2650, #2660);
#2680 = APPROVAL_PERSON_ORGANIZATION (#2670, #2580, #2640);
#2690 = CC_DESIGN_APPROVAL (#2580, (#2560));
#2700 = PERSON_AND_ORGANIZATION_ROLE ('creator');
#2710 = PERSON ('', '', $, $, $, $);
#2720 = ORGANIZATION ($, '', '');
#2730 = PERSON_AND_ORGANIZATION (#2710, #2720);
#2740 = CC_DESIGN_PERSON_AND_ORGANIZATION_ASSIGNMENT (#2730, #2700, (#2560));
#2750 = PERSON_AND_ORGANIZATION_ROLE ('part_supplier');
#2760 = PERSON ('', '', $, $, $, $);
#2770 = ORGANIZATION ($, '', '');
#2780 = PERSON_AND_ORGANIZATION (#2760, #2770);
#2790 = CC_DESIGN_PERSON_AND_ORGANIZATION_ASSIGNMENT (#2780, #2750, (#2560));
#2800 = SECURITY_CLASSIFICATION_LEVEL ('unclassified');
#2810 = SECURITY_CLASSIFICATION ('', '', #2800);
#2820 = APPROVAL_STATUS ('approved');
#2830 = APPROVAL (#2820, '');
#2840 = CALENDAR_DATE (2016, 24, 5);
#2850 = COORDINATED_UNIVERSAL_TIME_OFFSET (0, $, .AHEAD.);
#2860 = LOCAL_TIME (14, 16, 13., #2850);
#2870 = DATE_AND_TIME (#2840, #2860);
#2880 = APPROVAL_DATE_TIME (#2870, #2830);
#2890 = APPROVAL_ROLE ('');
#2900 = PERSON ('', '', $, $, $, $);
#2910 = ORGANIZATION ($, '', '');
#2920 = PERSON_AND_ORGANIZATION (#2900, #2910);
#2930 = APPROVAL_PERSON_ORGANIZATION (#2920, #2830, #2890);
#2940 = CC_DESIGN_APPROVAL (#2830, (#2810));
#2950 = DATE_TIME_ROLE ('classification_date');
#2960 = CALENDAR_DATE (2016, 24, 5);
#2970 = COORDINATED_UNIVERSAL_TIME_OFFSET (0, $, .AHEAD.);
#2980 = LOCAL_TIME (14, 16, 13., #2970);
#2990 = DATE_AND_TIME (#2960, #2980);
#3000 = CC_DESIGN_DATE_AND_TIME_ASSIGNMENT (#2990, #2950, (#2810));
#3010 = PERSON_AND_ORGANIZATION_ROLE ('classification_officer');
#3020 = PERSON ('', '', $, $, $, $);
#3030 = ORGANIZATION ($, '', '');
#3040 = PERSON_AND_ORGANIZATION (#3020, #3030);
#3050 = CC_DESIGN_PERSON_AND_ORGANIZATION_ASSIGNMENT (#3040, #3010, (#2810));
#3060 = CC_DESIGN_SECURITY_CLASSIFICATION (#2810, (#2560));
#3070 = DESIGN_CONTEXT ('', #2460, 'design');
#3080 = PRODUCT_DEFINITION ('', '', #2560, #3070);
#3090 = APPROVAL_STATUS ('approved');
#3100 = APPROVAL (#3090, '');
#3110 = CALENDAR_DATE (2016, 24, 5);
#3120 = COORDINATED_UNIVERSAL_TIME_OFFSET (0, $, .AHEAD.);
#3130 = LOCAL_TIME (14, 16, 13., #3120);
#3140 = DATE_AND_TIME (#3110, #3130);
#3150 = APPROVAL_DATE_TIME (#3140, #3100);
#3160 = APPROVAL_ROLE ('');
#3170 = PERSON ('', '', $, $, $, $);
#3180 = ORGANIZATION ($, '', '');
#3190 = PERSON_AND_ORGANIZATION (#3170, #3180);
#3200 = APPROVAL_PERSON_ORGANIZATION (#3190, #3100, #3160);
#3210 = CC_DESIGN_APPROVAL (#3100, (#3080));
#3220 = DATE_TIME_ROLE ('creation_date');
#3230 = CALENDAR_DATE (2016, 24, 5);
#3240 = COORDINATED_UNIVERSAL_TIME_OFFSET (0, $, .AHEAD.);
#3250 = LOCAL_TIME (14, 16, 13., #3240);
#3260 = DATE_AND_TIME (#3230, #3250);
#3270 = CC_DESIGN_DATE_AND_TIME_ASSIGNMENT (#3260, #3220, (#3080));
#3280 = PERSON_AND_ORGANIZATION_ROLE ('creator');
#3290 = PERSON ('', '', $, $, $, $);
#3300 = ORGANIZATION ($, '', '');
#3310 = PERSON_AND_ORGANIZATION (#3290, #3300);
#3320 = CC_DESIGN_PERSON_AND_ORGANIZATION_ASSIGNMENT (#3310, #3280, (#3080));
#3330 = PRODUCT_DEFINITION_SHAPE ('', '', #3080);
#3340 = SHAPE_DEFINITION_REPRESENTATION (#3330, #2450);
#3350 = PRESENTATION_LAYER_ASSIGNMENT ('Level 0', 'Level 0', (#2390));
ENDSEC;
END-ISO-10303-21;
