ISO-10303-21;
HEADER;
FILE_DESCRIPTION ((), '1');
FILE_NAME ('\\\\fileserver\\Daten\\Applikationen\\Optikdesign\\SPA-Design\\aktuelle SPA-Designs\\Linsenkataloge - 2016-Juni\\Zemax\\AFL\\AFL25-40.STP', '2016-05-24T14:15:56', ('Unknown'), ('Unknown'), 'HarmonyWare STEP v2.0.1', 'HarmonyWare Translators', '');
FILE_SCHEMA (('CONFIG_CONTROL_DESIGN'));
ENDSEC;

DATA;
#10 = CARTESIAN_POINT ('', (12.5, 0., -38.4912178707586));
#20 = VERTEX_POINT ('', #10);
#30 = CARTESIAN_POINT ('', (7.65404249467096E-16, 12.5, -38.4912178707586));
#40 = VERTEX_POINT ('', #30);
#50 = CARTESIAN_POINT ('', (12.5, 0., -38.4912178707586));
#60 = CARTESIAN_POINT ('', (12.5, 12.5, -38.4912178707586));
#70 = CARTESIAN_POINT ('', (7.65404249467096E-16, 12.5, -38.4912178707586));
#80 = (
   BOUNDED_CURVE ()
   B_SPLINE_CURVE (2, (#50, #60, #70), .UNSPECIFIED., .F., .U.)
   B_SPLINE_CURVE_WITH_KNOTS ((3, 3), (0., 1.5707963267949), .UNSPECIFIED.)
   CURVE ()
   GEOMETRIC_REPRESENTATION_ITEM ()
   RATIONAL_B_SPLINE_CURVE ((1., 0.707106781186548, 1.))
   REPRESENTATION_ITEM ('')
);
#90 = EDGE_CURVE ('', #20, #40, #80, .T.);
#100 = ORIENTED_EDGE ('', *, *, #90, .T.);
#110 = CARTESIAN_POINT ('', (-12.5, 1.53080849893419E-15, -38.4912178707586));
#120 = VERTEX_POINT ('', #110);
#130 = CARTESIAN_POINT ('', (7.65404249467096E-16, 12.5, -38.4912178707586));
#140 = CARTESIAN_POINT ('', (-12.5, 12.5, -38.4912178707586));
#150 = CARTESIAN_POINT ('', (-12.5, 1.53080849893419E-15, -38.4912178707586));
#160 = (
   BOUNDED_CURVE ()
   B_SPLINE_CURVE (2, (#130, #140, #150), .UNSPECIFIED., .F., .U.)
   B_SPLINE_CURVE_WITH_KNOTS ((3, 3), (1.5707963267949, 3.14159265358979), .UNSPECIFIED.)
   CURVE ()
   GEOMETRIC_REPRESENTATION_ITEM ()
   RATIONAL_B_SPLINE_CURVE ((1., 0.707106781186548, 1.))
   REPRESENTATION_ITEM ('')
);
#170 = EDGE_CURVE ('', #40, #120, #160, .T.);
#180 = ORIENTED_EDGE ('', *, *, #170, .T.);
#190 = CARTESIAN_POINT ('', (-12.5, 1.53080849893419E-15, -34.64355659148));
#200 = VERTEX_POINT ('', #190);
#210 = CARTESIAN_POINT ('', (-12.5, 1.53080849893419E-15, -38.4912178707586));
#220 = CARTESIAN_POINT ('', (-12.5, 1.53080849893419E-15, -34.64355659148));
#230 = B_SPLINE_CURVE_WITH_KNOTS ('', 1, (#210, #220), .UNSPECIFIED., .F., .U., (2, 2), (0., 1.), .UNSPECIFIED.);
#240 = EDGE_CURVE ('', #120, #200, #230, .T.);
#250 = ORIENTED_EDGE ('', *, *, #240, .T.);
#260 = CARTESIAN_POINT ('', (12.5, 0., -34.64355659148));
#270 = VERTEX_POINT ('', #260);
#280 = CARTESIAN_POINT ('', (12.5, 0., -34.64355659148));
#290 = CARTESIAN_POINT ('', (12.5, 12.5, -34.64355659148));
#300 = CARTESIAN_POINT ('', (7.65404249467096E-16, 12.5, -34.64355659148));
#310 = CARTESIAN_POINT ('', (-12.5, 12.5, -34.64355659148));
#320 = CARTESIAN_POINT ('', (-12.5, 1.53080849893419E-15, -34.64355659148));
#330 = (
   BOUNDED_CURVE ()
   B_SPLINE_CURVE (2, (#280, #290, #300, #310, #320), .UNSPECIFIED., .F., .U.)
   B_SPLINE_CURVE_WITH_KNOTS ((3, 2, 3), (0., 1.5707963267949, 3.14159265358979), .UNSPECIFIED.)
   CURVE ()
   GEOMETRIC_REPRESENTATION_ITEM ()
   RATIONAL_B_SPLINE_CURVE ((1., 0.707106781186548, 1., 0.707106781186548, 1.))
   REPRESENTATION_ITEM ('')
);
#340 = EDGE_CURVE ('', #270, #200, #330, .T.);
#350 = ORIENTED_EDGE ('', *, *, #340, .F.);
#360 = CARTESIAN_POINT ('', (12.5, 0., -38.4912178707586));
#370 = CARTESIAN_POINT ('', (12.5, 0., -34.64355659148));
#380 = B_SPLINE_CURVE_WITH_KNOTS ('', 1, (#360, #370), .UNSPECIFIED., .F., .U., (2, 2), (0., 1.), .UNSPECIFIED.);
#390 = EDGE_CURVE ('', #20, #270, #380, .T.);
#400 = ORIENTED_EDGE ('', *, *, #390, .F.);
#410 = EDGE_LOOP ('', (#100, #180, #250, #350, #400));
#420 = FACE_OUTER_BOUND ('', #410, .T.);
#430 = CARTESIAN_POINT ('', (1.77635683940025E-15, -2.66453525910038E-15, -38.4912178707586));
#440 = DIRECTION ('', (0., 0., 1.));
#450 = DIRECTION ('', (1., 2.1316282072803E-16, 0.));
#460 = AXIS2_PLACEMENT_3D ('', #430, #440, #450);
#470 = CYLINDRICAL_SURFACE ('', #460, 12.5);
#480 = ADVANCED_FACE ('', (#420), #470, .T.);
#490 = CARTESIAN_POINT ('', (-12.5, 1.53080849893419E-15, -38.4912178707586));
#500 = CARTESIAN_POINT ('', (-12.5, -12.5, -38.4912178707586));
#510 = CARTESIAN_POINT ('', (-2.29621274840129E-15, -12.5, -38.4912178707586));
#520 = CARTESIAN_POINT ('', (12.5, -12.5, -38.4912178707586));
#530 = CARTESIAN_POINT ('', (12.5, -3.06161699786838E-15, -38.4912178707586));
#540 = (
   BOUNDED_CURVE ()
   B_SPLINE_CURVE (2, (#490, #500, #510, #520, #530), .UNSPECIFIED., .F., .U.)
   B_SPLINE_CURVE_WITH_KNOTS ((3, 2, 3), (3.14159265358979, 4.71238898038469, 6.28318530717959), .UNSPECIFIED.)
   CURVE ()
   GEOMETRIC_REPRESENTATION_ITEM ()
   RATIONAL_B_SPLINE_CURVE ((1., 0.707106781186548, 1., 0.707106781186548, 1.))
   REPRESENTATION_ITEM ('')
);
#550 = EDGE_CURVE ('', #120, #20, #540, .T.);
#560 = ORIENTED_EDGE ('', *, *, #550, .T.);
#570 = ORIENTED_EDGE ('', *, *, #390, .T.);
#580 = CARTESIAN_POINT ('', (-12.5, 1.53080849893419E-15, -34.64355659148));
#590 = CARTESIAN_POINT ('', (-12.5, -12.5, -34.64355659148));
#600 = CARTESIAN_POINT ('', (-2.29621274840129E-15, -12.5, -34.64355659148));
#610 = CARTESIAN_POINT ('', (12.5, -12.5, -34.64355659148));
#620 = CARTESIAN_POINT ('', (12.5, -3.06161699786838E-15, -34.64355659148));
#630 = (
   BOUNDED_CURVE ()
   B_SPLINE_CURVE (2, (#580, #590, #600, #610, #620), .UNSPECIFIED., .F., .U.)
   B_SPLINE_CURVE_WITH_KNOTS ((3, 2, 3), (3.14159265358979, 4.71238898038469, 6.28318530717959), .UNSPECIFIED.)
   CURVE ()
   GEOMETRIC_REPRESENTATION_ITEM ()
   RATIONAL_B_SPLINE_CURVE ((1., 0.707106781186548, 1., 0.707106781186548, 1.))
   REPRESENTATION_ITEM ('')
);
#640 = EDGE_CURVE ('', #200, #270, #630, .T.);
#650 = ORIENTED_EDGE ('', *, *, #640, .F.);
#660 = ORIENTED_EDGE ('', *, *, #240, .F.);
#670 = EDGE_LOOP ('', (#560, #570, #650, #660));
#680 = FACE_OUTER_BOUND ('', #670, .T.);
#690 = CARTESIAN_POINT ('', (-8.88178419700125E-16, 8.88178419700125E-16, -38.4912178707586));
#700 = DIRECTION ('', (0., 0., 1.));
#710 = DIRECTION ('', (-1., 5.14104063387253E-17, 0.));
#720 = AXIS2_PLACEMENT_3D ('', #690, #700, #710);
#730 = CYLINDRICAL_SURFACE ('', #720, 12.5);
#740 = ADVANCED_FACE ('', (#680), #730, .T.);
#750 = CARTESIAN_POINT ('', (0., 0., -42.64355659148));
#760 = VERTEX_POINT ('', #750);
#770 = CARTESIAN_POINT ('', (0., 0., -42.64355659148));
#780 = CARTESIAN_POINT ('', (0., 0.543153333142922, -42.64355659148));
#790 = CARTESIAN_POINT ('', (0., 1.61117824066973, -42.5993011161811));
#800 = CARTESIAN_POINT ('', (0., 3.06730183132441, -42.4202901451014));
#810 = CARTESIAN_POINT ('', (-3.94430452610506E-31, 4.77227384785056, -42.0904551909076));
#820 = CARTESIAN_POINT ('', (0., 6.34071741914734, -41.6399844955875));
#830 = CARTESIAN_POINT ('', (0., 7.89135149162915, -41.0475792652434));
#840 = CARTESIAN_POINT ('', (0., 9.06521200960005, -40.5213515275029));
#850 = CARTESIAN_POINT ('', (0., 10.6319399396878, -39.7115481699941));
#860 = CARTESIAN_POINT ('', (-3.94430452610506E-31, 11.7653772105339, -39.0028342193545));
#870 = CARTESIAN_POINT ('', (0., 12.5, -38.4912178707586));
#880 = B_SPLINE_CURVE_WITH_KNOTS ('', 3, (#770, #780, #790, #800, #810, #820, #830, #840, #850, #860, #870), .UNSPECIFIED., .F., .U., (4, 1, 1, 1, 1, 1, 1, 1, 4), (0., 0.121780101169506, 0.239462607732063, 0.328678017034052, 0.510969921296235, 0.604726327177825, 0.700702242487811, 0.799282844857972, 1.), .UNSPECIFIED.);
#890 = EDGE_CURVE ('', #760, #40, #880, .T.);
#900 = ORIENTED_EDGE ('', *, *, #890, .T.);
#910 = ORIENTED_EDGE ('', *, *, #90, .F.);
#920 = ORIENTED_EDGE ('', *, *, #550, .F.);
#930 = ORIENTED_EDGE ('', *, *, #170, .F.);
#940 = ORIENTED_EDGE ('', *, *, #890, .F.);
#950 = EDGE_LOOP ('', (#900, #910, #920, #930, #940));
#960 = FACE_OUTER_BOUND ('', #950, .T.);
#970 = CARTESIAN_POINT ('', (0., 12.5, -38.4912178707586));
#980 = CARTESIAN_POINT ('', (-12.5, 12.5, -38.4912178707586));
#990 = CARTESIAN_POINT ('', (-12.5, 5.09527404550521E-15, -38.4912178707586));
#1000 = CARTESIAN_POINT ('', (-12.5, -12.5, -38.4912178707586));
#1010 = CARTESIAN_POINT ('', (-6.85987901713494E-15, -12.5, -38.4912178707586));
#1020 = CARTESIAN_POINT ('', (12.5, -12.5, -38.4912178707586));
#1030 = CARTESIAN_POINT ('', (12.5, -3.29541347056393E-15, -38.4912178707586));
#1040 = CARTESIAN_POINT ('', (12.5, 12.5, -38.4912178707586));
#1050 = CARTESIAN_POINT ('', (0., 12.5, -38.4912178707586));
#1060 = CARTESIAN_POINT ('', (-3.94430452610506E-31, 11.7653772105339, -39.0028342193545));
#1070 = CARTESIAN_POINT ('', (-11.7653772105339, 11.7653772105339, -39.0028342193545));
#1080 = CARTESIAN_POINT ('', (-11.7653772105339, 5.05029137312019E-15, -39.0028342193545));
#1090 = CARTESIAN_POINT ('', (-11.7653772105339, -11.7653772105339, -39.0028342193545));
#1100 = CARTESIAN_POINT ('', (-6.76991367236491E-15, -11.7653772105339, -39.0028342193545));
#1110 = CARTESIAN_POINT ('', (11.7653772105339, -11.7653772105339, -39.0028342193545));
#1120 = CARTESIAN_POINT ('', (11.7653772105339, -3.16046545340888E-15, -39.0028342193545));
#1130 = CARTESIAN_POINT ('', (11.7653772105339, 11.7653772105339, -39.0028342193545));
#1140 = CARTESIAN_POINT ('', (-3.94430452610506E-31, 11.7653772105339, -39.0028342193545));
#1150 = CARTESIAN_POINT ('', (0., 10.6319399396878, -39.7115481699941));
#1160 = CARTESIAN_POINT ('', (-10.6319399396878, 10.6319399396878, -39.7115481699941));
#1170 = CARTESIAN_POINT ('', (-10.6319399396878, 4.98088835683139E-15, -39.7115481699941));
#1180 = CARTESIAN_POINT ('', (-10.6319399396878, -10.6319399396878, -39.7115481699941));
#1190 = CARTESIAN_POINT ('', (-6.6311076397873E-15, -10.6319399396878, -39.7115481699941));
#1200 = CARTESIAN_POINT ('', (10.6319399396878, -10.6319399396878, -39.7115481699941));
#1210 = CARTESIAN_POINT ('', (10.6319399396878, -2.95225640454247E-15, -39.7115481699941));
#1220 = CARTESIAN_POINT ('', (10.6319399396878, 10.6319399396878, -39.7115481699941));
#1230 = CARTESIAN_POINT ('', (0., 10.6319399396878, -39.7115481699941));
#1240 = CARTESIAN_POINT ('', (0., 9.06521200960005, -40.5213515275029));
#1250 = CARTESIAN_POINT ('', (-9.06521200960005, 9.06521200960005, -40.5213515275029));
#1260 = CARTESIAN_POINT ('', (-9.06521200960005, 4.88495393959555E-15, -40.5213515275029));
#1270 = CARTESIAN_POINT ('', (-9.06521200960005, -9.06521200960004, -40.5213515275029));
#1280 = CARTESIAN_POINT ('', (-6.43923880531564E-15, -9.06521200960005, -40.5213515275029));
#1290 = CARTESIAN_POINT ('', (9.06521200960004, -9.06521200960005, -40.5213515275029));
#1300 = CARTESIAN_POINT ('', (9.06521200960004, -2.66445315283497E-15, -40.5213515275029));
#1310 = CARTESIAN_POINT ('', (9.06521200960005, 9.06521200960005, -40.5213515275029));
#1320 = CARTESIAN_POINT ('', (0., 9.06521200960005, -40.5213515275029));
#1330 = CARTESIAN_POINT ('', (0., 7.89135149162915, -41.0475792652434));
#1340 = CARTESIAN_POINT ('', (-7.89135149162915, 7.89135149162915, -41.0475792652434));
#1350 = CARTESIAN_POINT ('', (-7.89135149162915, 4.81307571329663E-15, -41.0475792652434));
#1360 = CARTESIAN_POINT ('', (-7.89135149162915, -7.89135149162914, -41.0475792652434));
#1370 = CARTESIAN_POINT ('', (-6.29548235271778E-15, -7.89135149162915, -41.0475792652434));
#1380 = CARTESIAN_POINT ('', (7.89135149162914, -7.89135149162915, -41.0475792652434));
#1390 = CARTESIAN_POINT ('', (7.89135149162915, -2.44881847393819E-15, -41.0475792652434));
#1400 = CARTESIAN_POINT ('', (7.89135149162915, 7.89135149162914, -41.0475792652434));
#1410 = CARTESIAN_POINT ('', (0., 7.89135149162915, -41.0475792652434));
#1420 = CARTESIAN_POINT ('', (0., 6.34071741914734, -41.6399844955875));
#1430 = CARTESIAN_POINT ('', (-6.34071741914734, 6.34071741914734, -41.6399844955875));
#1440 = CARTESIAN_POINT ('', (-6.34071741914734, 4.71812676062094E-15, -41.6399844955875));
#1450 = CARTESIAN_POINT ('', (-6.34071741914734, -6.34071741914733, -41.6399844955875));
#1460 = CARTESIAN_POINT ('', (-6.10558444736642E-15, -6.34071741914734, -41.6399844955875));
#1470 = CARTESIAN_POINT ('', (6.34071741914733, -6.34071741914734, -41.6399844955875));
#1480 = CARTESIAN_POINT ('', (6.34071741914734, -2.16397161591114E-15, -41.6399844955875));
#1490 = CARTESIAN_POINT ('', (6.34071741914734, 6.34071741914734, -41.6399844955875));
#1500 = CARTESIAN_POINT ('', (0., 6.34071741914734, -41.6399844955875));
#1510 = CARTESIAN_POINT ('', (-3.94430452610506E-31, 4.77227384785056, -42.0904551909076));
#1520 = CARTESIAN_POINT ('', (-4.77227384785056, 4.77227384785056, -42.0904551909076));
#1530 = CARTESIAN_POINT ('', (-4.77227384785056, 4.62208729065935E-15, -42.0904551909076));
#1540 = CARTESIAN_POINT ('', (-4.77227384785056, -4.77227384785055, -42.0904551909076));
#1550 = CARTESIAN_POINT ('', (-5.91350550744323E-15, -4.77227384785055, -42.0904551909076));
#1560 = CARTESIAN_POINT ('', (4.77227384785055, -4.77227384785056, -42.0904551909076));
#1570 = CARTESIAN_POINT ('', (4.77227384785055, -1.87585320602636E-15, -42.0904551909076));
#1580 = CARTESIAN_POINT ('', (4.77227384785056, 4.77227384785055, -42.0904551909076));
#1590 = CARTESIAN_POINT ('', (-3.94430452610506E-31, 4.77227384785056, -42.0904551909076));
#1600 = CARTESIAN_POINT ('', (0., 3.06730183132441, -42.4202901451014));
#1610 = CARTESIAN_POINT ('', (-3.0673018313244, 3.06730183132441, -42.4202901451014));
#1620 = CARTESIAN_POINT ('', (-3.06730183132441, 4.51768786452562E-15, -42.4202901451014));
#1630 = CARTESIAN_POINT ('', (-3.06730183132441, -3.0673018313244, -42.4202901451014));
#1640 = CARTESIAN_POINT ('', (-5.70470665517578E-15, -3.0673018313244, -42.4202901451014));
#1650 = CARTESIAN_POINT ('', (3.0673018313244, -3.0673018313244, -42.4202901451014));
#1660 = CARTESIAN_POINT ('', (3.0673018313244, -1.56265492762518E-15, -42.4202901451014));
#1670 = CARTESIAN_POINT ('', (3.0673018313244, 3.0673018313244, -42.4202901451014));
#1680 = CARTESIAN_POINT ('', (0., 3.06730183132441, -42.4202901451014));
#1690 = CARTESIAN_POINT ('', (0., 1.61117824066973, -42.5993011161811));
#1700 = CARTESIAN_POINT ('', (-1.61117824066973, 1.61117824066973, -42.5993011161811));
#1710 = CARTESIAN_POINT ('', (-1.61117824066973, 4.42852600980271E-15, -42.5993011161811));
#1720 = CARTESIAN_POINT ('', (-1.61117824066974, -1.61117824066973, -42.5993011161811));
#1730 = CARTESIAN_POINT ('', (-5.52638294572996E-15, -1.61117824066973, -42.5993011161811));
#1740 = CARTESIAN_POINT ('', (1.61117824066972, -1.61117824066973, -42.5993011161811));
#1750 = CARTESIAN_POINT ('', (1.61117824066973, -1.29516936345645E-15, -42.5993011161811));
#1760 = CARTESIAN_POINT ('', (1.61117824066973, 1.61117824066973, -42.5993011161811));
#1770 = CARTESIAN_POINT ('', (0., 1.61117824066973, -42.5993011161811));
#1780 = CARTESIAN_POINT ('', (0., 0.543153333142922, -42.64355659148));
#1790 = CARTESIAN_POINT ('', (-0.54315333314292, 0.543153333142925, -42.64355659148));
#1800 = CARTESIAN_POINT ('', (-0.543153333142923, 4.36312834558209E-15, -42.64355659148));
#1810 = CARTESIAN_POINT ('', (-0.543153333142926, -0.543153333142916, -42.64355659148));
#1820 = CARTESIAN_POINT ('', (-5.39558761728872E-15, -0.543153333142919, -42.64355659148));
#1830 = CARTESIAN_POINT ('', (0.543153333142915, -0.543153333142922, -42.64355659148));
#1840 = CARTESIAN_POINT ('', (0.543153333142918, -1.0989763707946E-15, -42.64355659148));
#1850 = CARTESIAN_POINT ('', (0.543153333142921, 0.543153333142919, -42.64355659148));
#1860 = CARTESIAN_POINT ('', (0., 0.543153333142922, -42.64355659148));
#1870 = CARTESIAN_POINT ('', (0., 0., -42.64355659148));
#1880 = CARTESIAN_POINT ('', (0., 0., -42.64355659148));
#1890 = CARTESIAN_POINT ('', (0., 0., -42.64355659148));
#1900 = CARTESIAN_POINT ('', (0., 0., -42.64355659148));
#1910 = CARTESIAN_POINT ('', (0., 0., -42.64355659148));
#1920 = CARTESIAN_POINT ('', (0., 0., -42.64355659148));
#1930 = CARTESIAN_POINT ('', (0., 0., -42.64355659148));
#1940 = CARTESIAN_POINT ('', (0., 0., -42.64355659148));
#1950 = CARTESIAN_POINT ('', (0., 0., -42.64355659148));
#1960 = (
   BOUNDED_SURFACE ()
   B_SPLINE_SURFACE (3, 2, ((#970, #980, #990, #1000, #1010, #1020, #1030, #1040, #1050), (#1060, #1070, #1080, #1090, #1100, #1110, #1120, #1130, #1140), (#1150, #1160, #1170, #1180, #1190, #1200, #1210, #1220, #1230), (#1240, #1250, #1260, #1270, #1280, #1290, #1300, #1310, #1320), (#1330, #1340, #1350, #1360, #1370, #1380, #1390, #1400, #1410), (#1420, #1430, #1440, #1450, #1460, #1470, #1480, #1490, #1500), (#1510, #1520, #1530, #1540, #1550, #1560, #1570, #1580, #1590), (#1600, #1610, #1620, #1630, #1640, #1650, #1660, #1670, #1680), (#1690, #1700, #1710, #1720, #1730, #1740, #1750, #1760, #1770), (#1780, #1790, #1800, #1810, #1820, #1830, #1840, #1850, #1860), (#1870, #1880, #1890, #1900, #1910, #1920, #1930, #1940, #1950)), .UNSPECIFIED., .F., .T., .U.)
   B_SPLINE_SURFACE_WITH_KNOTS ((4, 1, 1, 1, 1, 1, 1, 1, 4), (3, 2, 2, 2, 3), (0., 0.200717155142028, 0.299297757512189, 0.395273672822175, 0.489030078703765, 0.671321982965948, 0.760537392267937, 0.878219898830494, 1.), (0., 90., 180., 270., 360.), .UNSPECIFIED.)
   SURFACE ()
   GEOMETRIC_REPRESENTATION_ITEM ()
   RATIONAL_B_SPLINE_SURFACE (((1., 0.707106781186548, 1., 0.707106781186548, 1., 0.707106781186548, 1., 0.707106781186548, 1.), (1., 0.707106781186548, 1., 0.707106781186548, 1., 0.707106781186548, 1., 0.707106781186548, 1.), (1., 0.707106781186548, 1., 0.707106781186548, 1., 0.707106781186548, 1., 0.707106781186548, 1.), (1., 0.707106781186548, 1., 0.707106781186548, 1., 0.707106781186548, 1., 0.707106781186548, 1.), (1., 0.707106781186548, 1., 0.707106781186548, 1., 0.707106781186548, 1., 0.707106781186548, 1.), (1., 0.707106781186548, 1., 0.707106781186548, 1., 0.707106781186548, 1., 0.707106781186548, 1.), (1., 0.707106781186548, 1., 0.707106781186548, 1., 0.707106781186548, 1., 0.707106781186548, 1.), (1., 0.707106781186548, 1., 0.707106781186548, 1., 0.707106781186548, 1., 0.707106781186548, 1.), (1., 0.707106781186548, 1., 0.707106781186548, 1., 0.707106781186548, 1., 0.707106781186548, 1.), (1., 0.707106781186548, 1., 0.707106781186548, 1., 0.707106781186548, 1., 0.707106781186548, 1.), (1., 0.707106781186548, 1., 0.707106781186548, 1., 0.707106781186548, 1., 0.707106781186548, 1.)))
   REPRESENTATION_ITEM ('')
);
#1970 = ADVANCED_FACE ('', (#960), #1960, .T.);
#1980 = ORIENTED_EDGE ('', *, *, #340, .T.);
#1990 = ORIENTED_EDGE ('', *, *, #640, .T.);
#2000 = EDGE_LOOP ('', (#1980, #1990));
#2010 = FACE_OUTER_BOUND ('', #2000, .T.);
#2020 = CARTESIAN_POINT ('', (0., 25.704, -34.64355659148));
#2030 = DIRECTION ('', (0., 0., 1.));
#2040 = DIRECTION ('', (-0.707106781186548, -0.707106781186548, 0.));
#2050 = AXIS2_PLACEMENT_3D ('', #2020, #2030, #2040);
#2060 = PLANE ('', #2050);
#2070 = ADVANCED_FACE ('', (#2010), #2060, .T.);
#2080 = CLOSED_SHELL ('', (#480, #740, #1970, #2070));
#2090 = MANIFOLD_SOLID_BREP ('', #2080);
#2100 = (
   LENGTH_UNIT ()
   NAMED_UNIT (*)
   SI_UNIT (.MILLI., .METRE.)
);
#2110 = (
   NAMED_UNIT (*)
   SI_UNIT ($, .STERADIAN.)
   SOLID_ANGLE_UNIT ()
);
#2120 = (
   NAMED_UNIT (*)
   SI_UNIT ($, .RADIAN.)
   PLANE_ANGLE_UNIT ()
);
#2130 = UNCERTAINTY_MEASURE_WITH_UNIT (LENGTH_MEASURE(0.0001), #2100, 'DISTANCE_ACCURACY_VALUE', '');
#2140 = (
   GEOMETRIC_REPRESENTATION_CONTEXT (3)
   GLOBAL_UNCERTAINTY_ASSIGNED_CONTEXT ((#2130))
   GLOBAL_UNIT_ASSIGNED_CONTEXT ((#2100, #2110, #2120))
   REPRESENTATION_CONTEXT ('', '3D')
);
#2150 = ADVANCED_BREP_SHAPE_REPRESENTATION ('', (#2090), #2140);
#2160 = APPLICATION_CONTEXT ('configuration controlled 3D designs of mechanical parts and assemblies');
#2170 = APPLICATION_PROTOCOL_DEFINITION ('International Standard', 'config_control_design', 1997, #2160);
#2180 = MECHANICAL_CONTEXT ('', #2160, 'mechanical');
#2190 = PRODUCT ('NONE', '', '', (#2180));
#2200 = PERSON_AND_ORGANIZATION_ROLE ('design_owner');
#2210 = PERSON ('', '', $, $, $, $);
#2220 = ORGANIZATION ($, '', '');
#2230 = PERSON_AND_ORGANIZATION (#2210, #2220);
#2240 = CC_DESIGN_PERSON_AND_ORGANIZATION_ASSIGNMENT (#2230, #2200, (#2190));
#2250 = PRODUCT_RELATED_PRODUCT_CATEGORY ('detail', $, (#2190));
#2260 = PRODUCT_DEFINITION_FORMATION_WITH_SPECIFIED_SOURCE ('', '', #2190, .NOT_KNOWN.);
#2270 = APPROVAL_STATUS ('approved');
#2280 = APPROVAL (#2270, '');
#2290 = CALENDAR_DATE (2016, 24, 5);
#2300 = COORDINATED_UNIVERSAL_TIME_OFFSET (0, $, .AHEAD.);
#2310 = LOCAL_TIME (14, 15, 56., #2300);
#2320 = DATE_AND_TIME (#2290, #2310);
#2330 = APPROVAL_DATE_TIME (#2320, #2280);
#2340 = APPROVAL_ROLE ('');
#2350 = PERSON ('', '', $, $, $, $);
#2360 = ORGANIZATION ($, '', '');
#2370 = PERSON_AND_ORGANIZATION (#2350, #2360);
#2380 = APPROVAL_PERSON_ORGANIZATION (#2370, #2280, #2340);
#2390 = CC_DESIGN_APPROVAL (#2280, (#2260));
#2400 = PERSON_AND_ORGANIZATION_ROLE ('creator');
#2410 = PERSON ('', '', $, $, $, $);
#2420 = ORGANIZATION ($, '', '');
#2430 = PERSON_AND_ORGANIZATION (#2410, #2420);
#2440 = CC_DESIGN_PERSON_AND_ORGANIZATION_ASSIGNMENT (#2430, #2400, (#2260));
#2450 = PERSON_AND_ORGANIZATION_ROLE ('part_supplier');
#2460 = PERSON ('', '', $, $, $, $);
#2470 = ORGANIZATION ($, '', '');
#2480 = PERSON_AND_ORGANIZATION (#2460, #2470);
#2490 = CC_DESIGN_PERSON_AND_ORGANIZATION_ASSIGNMENT (#2480, #2450, (#2260));
#2500 = SECURITY_CLASSIFICATION_LEVEL ('unclassified');
#2510 = SECURITY_CLASSIFICATION ('', '', #2500);
#2520 = APPROVAL_STATUS ('approved');
#2530 = APPROVAL (#2520, '');
#2540 = CALENDAR_DATE (2016, 24, 5);
#2550 = COORDINATED_UNIVERSAL_TIME_OFFSET (0, $, .AHEAD.);
#2560 = LOCAL_TIME (14, 15, 56., #2550);
#2570 = DATE_AND_TIME (#2540, #2560);
#2580 = APPROVAL_DATE_TIME (#2570, #2530);
#2590 = APPROVAL_ROLE ('');
#2600 = PERSON ('', '', $, $, $, $);
#2610 = ORGANIZATION ($, '', '');
#2620 = PERSON_AND_ORGANIZATION (#2600, #2610);
#2630 = APPROVAL_PERSON_ORGANIZATION (#2620, #2530, #2590);
#2640 = CC_DESIGN_APPROVAL (#2530, (#2510));
#2650 = DATE_TIME_ROLE ('classification_date');
#2660 = CALENDAR_DATE (2016, 24, 5);
#2670 = COORDINATED_UNIVERSAL_TIME_OFFSET (0, $, .AHEAD.);
#2680 = LOCAL_TIME (14, 15, 56., #2670);
#2690 = DATE_AND_TIME (#2660, #2680);
#2700 = CC_DESIGN_DATE_AND_TIME_ASSIGNMENT (#2690, #2650, (#2510));
#2710 = PERSON_AND_ORGANIZATION_ROLE ('classification_officer');
#2720 = PERSON ('', '', $, $, $, $);
#2730 = ORGANIZATION ($, '', '');
#2740 = PERSON_AND_ORGANIZATION (#2720, #2730);
#2750 = CC_DESIGN_PERSON_AND_ORGANIZATION_ASSIGNMENT (#2740, #2710, (#2510));
#2760 = CC_DESIGN_SECURITY_CLASSIFICATION (#2510, (#2260));
#2770 = DESIGN_CONTEXT ('', #2160, 'design');
#2780 = PRODUCT_DEFINITION ('', '', #2260, #2770);
#2790 = APPROVAL_STATUS ('approved');
#2800 = APPROVAL (#2790, '');
#2810 = CALENDAR_DATE (2016, 24, 5);
#2820 = COORDINATED_UNIVERSAL_TIME_OFFSET (0, $, .AHEAD.);
#2830 = LOCAL_TIME (14, 15, 56., #2820);
#2840 = DATE_AND_TIME (#2810, #2830);
#2850 = APPROVAL_DATE_TIME (#2840, #2800);
#2860 = APPROVAL_ROLE ('');
#2870 = PERSON ('', '', $, $, $, $);
#2880 = ORGANIZATION ($, '', '');
#2890 = PERSON_AND_ORGANIZATION (#2870, #2880);
#2900 = APPROVAL_PERSON_ORGANIZATION (#2890, #2800, #2860);
#2910 = CC_DESIGN_APPROVAL (#2800, (#2780));
#2920 = DATE_TIME_ROLE ('creation_date');
#2930 = CALENDAR_DATE (2016, 24, 5);
#2940 = COORDINATED_UNIVERSAL_TIME_OFFSET (0, $, .AHEAD.);
#2950 = LOCAL_TIME (14, 15, 56., #2940);
#2960 = DATE_AND_TIME (#2930, #2950);
#2970 = CC_DESIGN_DATE_AND_TIME_ASSIGNMENT (#2960, #2920, (#2780));
#2980 = PERSON_AND_ORGANIZATION_ROLE ('creator');
#2990 = PERSON ('', '', $, $, $, $);
#3000 = ORGANIZATION ($, '', '');
#3010 = PERSON_AND_ORGANIZATION (#2990, #3000);
#3020 = CC_DESIGN_PERSON_AND_ORGANIZATION_ASSIGNMENT (#3010, #2980, (#2780));
#3030 = PRODUCT_DEFINITION_SHAPE ('', '', #2780);
#3040 = SHAPE_DEFINITION_REPRESENTATION (#3030, #2150);
#3050 = PRESENTATION_LAYER_ASSIGNMENT ('Level 0', 'Level 0', (#2090));
ENDSEC;
END-ISO-10303-21;
